Oops, an error
Loading. Please wait.

Reject All American bass

407 views 12 this week
no commentswrite comment
1 2 3 4 5
3 more votes to show rating
add to favorites
×
Save as Personal and add changes to this tab that will be seen only by you. Learn more ›
×
You can save this tab as Personal to edit and correct it or add notes. All changes will be seen only by you. Learn more »
launch autoscroll
font size
0
reset
guitar tuner
edit
Autoscroll
slow
fast
+/-
esc
set tempo
stop
Author
Difficulty
Bikini Kill -- "Reject All American"

Intro:
------------------|---------------------|     
------------------|---------------------|     
--2---2---2-2-2-2-|---5----9----9--9--9-|     
------------------|---------------------| x3  

------------------|---------------------|
------------------|---------------------|
--2-2-2-2-2-2-2-2-|-----5-5-5-5-5-5-5-5-|
------------------|---------------------|


Verse 1:
----------x-------|-----------------|     Regimented
----------x-------|-----------------|     Designated
--7---7---x-7-7-7-|-------55--5-5-5-|     Mass acceptance
------------------|--555------------| x4  Over rated

----------x-------|-----------------|     Apology
----------x-------|-----------------|     Salutations  “Listen”
--7---7---x-7-7-7-|-------55--5-5-5-|     Teen anthem
------------------|---555-----------| x4  Obligation

------------------------|-----------------------|     If you work hard
------------------------|-----------------------|     You'll succeed
--10-10-10-10-----------|-----------------------|     A starring role
-----------------7---10-|---10---10-10-10-10-10-| x4  On Nothing Incor-


Chorus:
----------x-------|-----------------|     por
----------x-------|-----------------|     ra
--7---7---x-7-7-7-|-------55--5-5-5-|     ted
------------------|--555------------| x4  

----------x-------|-----------------|     All American
----------x-------|-----------------|     All American  “Reject”
--7---7---x-7-7-7-|-------55--5-5-5-|     All American
------------------|---555-----------| x4  All American 


Bridge 1:
------------------------|-----------------------|     He gets good grades
------------------------|-----------------------|     Plays guitar
--10-10-10-10-----------|-----------------------|     He’s all the rage on
-----------------7---10-|---10---10-10-10-10-10-| x4  Nothing Incorporated

----------x-------|-----------------|    Incorporated
----------x-------|-----------------|    Incorporated
--7---7---x-7-7-7-|-------55--5-5-5-|    Incorporated
------------------|--555------------| x4 Incorporated 




Bridge 2:
------------------|---------------------|
------------------|---------------------|
--2---2---2-2-2-2-|---5----9----9--9--9-|
------------------|---------------------| x4

-----------------------|----------------------|     He gets good grades
-----------------------|----------------------|     Plays guitar
--10-10-10-10----------|----------------------|     Thinks he’s cool
----------------7---10-|--10---10-10-10-10-10-| x4  But he’s really not~~~


Chorus:
----------x-------|-----------------|     (Reject)
----------x-------|-----------------|     Sportscar  “Reject”
--7---7---x-7-7-7-|-------55--5-5-5-|     Mausoleum
------------------|--555------------| x4  Sportscar Mausoleum
 
----------x-------|-----------------|     All American
----------x-------|-----------------|     All American “Reject”
--7---7---x-7-7-7-|-------55--5-5-5-|     All American
------------------|---555-----------| x4  All American 


End:
------------------||-------|
------------------||-------|
--2-2-2-2-2-2-2-2-||-7-----|
------------------||-------|

            
            
Suggest correction
Creating personal tab
Creating personal tab
You can edit any tab online and save it as your Personal.

You can edit, replace or remove any tab part or add personal notes – all changes will be seen only by you.

Personal tabs can be accessed anytime from any device, even offline.
Learn more »
Give kudos to tab author, rate the tab!
1 2 3 4 5
comments
print report bad tab
guest
You may want to rate the tab now too:
select rating
Wanna post a correction for this tab? Suggest correction