Oops, an error
Loading. Please wait.

Rip Bass Tab

346 views 1 this week
no commentswrite comment
1 2 3 4 5
3 more votes to show rating
add to favorites
launch autoscroll
font size
0
reset
guitar tuner
Autoscroll
slow
fast
+/-
esc
set tempo
stop
Help us to improve Ultimate-Guitar.com Take our survey!
×
Author
Difficulty
novice
-------------------------------------------------------------------------------
                             R.I.P. - Bikini Kill
-------------------------------------------------------------------------------
Tabbed by: jessmen
youtube.com/jessmen

it's how i play it, maybe not the way how it was played on the record

Tuning: Standard

Fig.1
G|------------------------------------------------------------------------------|
D|--44-00-44-00-44-00-44-00--------5r-------5r-------5--------------------------|
A|-----------------------------333-----333--------33---3------------------------|
E|------------------------------------------------------------------------------|

Fig. 2             Fig. 2.2
G|---------|--------------------------------------------------------------------|
D|---------|---------------------------------5555555----------------------------|
A|--3-2----|-------2222222--5555555-5555555-----------2222222--5-5-5-5-5--------|
E|-------3-|-333333-------------------------------------------------------------|


Order:

Fig. 1       x6
Fig. 2       x1
Fig. 2.2     x1
Fig. 1       x6
Fig. 2       x1
Fig. 2.2     x2
Fig. 1       x4
Fig. 2       x1
Fig. 2.2     x2


| r  let ring
===============================================================================
Suggest correction
Give kudos to tab author, rate the tab!
1 2 3 4 5
comments
print report bad tab
guest
You may want to rate the tab now too:
select rating
Wanna post a correction for this tab? Suggest correction