Oops, an error
Loading. Please wait.

Gibraltar Chords

124 views 1 this week
no commentswrite comment
1 2 3 4 5
3 more votes to show rating
add to favorites
launch autoscroll
font size
0
reset
transpose
0
reset
simplify chords
display chords
guitar tuner
Autoscroll
slow
fast
+/-
esc
set tempo
stop
Help us to improve Ultimate-Guitar.com Take our survey!
×
Author
Difficulty
novice
-------------------------------------------------------------------------------
                          Gibraltar - Bilderbuch
-------------------------------------------------------------------------------

Tabbed by: Jokl
Words and music by: Bilderbuch

"Gibraltar" is the last song on the outstanding album "Schick Schock" by the austrian band "Bilderbuch".
The chords I came up with fit very well. I'm not sure, however, if the licks are played 100% the way I
tabbed them. Every now and then guitarist Michael Krammer adds slight variations.
Nonetheless I think the tabs come pretty close to the original licks, but at the end of the day I've put
the main focus on the chords.

Good night everyone, and God bless.

[Chords]

  Dmaj7 F#m7 C#m7 Bm7 E
e|--5---9----4----4---7--| 
B|--7---10---5----3---9--| 
G|--6---9----4----2---9--| 
D|--7---11---6----4---9--| 
A|--5---9----4----2---7--| 
E|-----------------------|

*******************************************************************************


[Intro]


||Dmaj7 F#m7 | C#m7 Dmaj7 |Bm7 C#m7 Dmaj7 |Bm7 C#m7  Dmaj7 || x2

||Dmaj7 F#m7 | C#m7 Dmaj7 |Bm7 C#m7 Dmaj7 |Bm7 C#m7 E Dmaj7 || x1


NOTE: - Apart from small variations, it's basically the same chord progression throughout the whole song. 
      - It sounds best, if you mainly hit the A, D and G string.
      - "Slide" into the chords!
      - Listen to the song carefully to get the right rhythm and accentuations!


[Verse]

Dmaj7    F#m7 
Distanz.
C#m7        Dma7
    Long Distanz.
Bm7 C#m7       Dmaj7
    Du sagst, du gehst nach Gibraltar.
Bm7 C#m7   E   Dmaj7


Dmaj7    F#m7 
Distanz.
C#m7                            Dma7
     Du sagst du gehst nach Kanada,
Bm7 C#m7  Dmaj7
             Dann ist hier keiner da,
Bm7 C#m7 E Dmaj7
             Der mit mir tanzt.


[Solo]

e|------------------------|--------------------------| 
B|--10-10-7--7-\5--5--5-5-|5b9-r5--5--5h7------------| 
G|------------------------|---------------6----\4----| 
D|------------------------|--------------------------| 
A|------------------------|--------------------------| 
E|------------------------|--------------------------|

e|------------------------|--------------------------| 
B|10-10-7-7--\5-----------|--------------------------| 
G|--------------6\4\2-----|--------------------------| 
D|--------------------4\2-|4/7-----------------------| 
A|------------------------|--------------------------| 
E|------------------------|--------------------------|

e|------------------------|--------------------------| 
B|--10-10-7--7-\5--5--5-5-|5b9-r5--5--5-5-9---/10----| 
G|------------------------|--------------------------| 
D|------------------------|--------------------------| 
A|------------------------|--------------------------| 
E|------------------------|--------------------------|

e|------------------------|--------------------------| 
B|10-10-7-7--\5-----------|--------------------------| 
G|--------------6\4\2-----|--------------------------| 
D|--------------------4\2-|4/7-----------------------| 
A|------------------------|--------------------------| 
E|------------------------|--------------------------|


[Verse]

Dmaj7    F#m7 
Distanz.
C#m7        Dma7
     Fame distance.
Bm7 C#m7       Dmaj7
    Du sagst du gehst nach Gibraltar,
Bm7 C#m7   E   Dmaj7
              Bla bla bla.

Dmaj7    F#m7 
Distanz.
C#m7                          Dma7
     Wir waren uns doch so rasend nah.
Bm7 C#m7  Dmaj7
naaaaahhh
Bm7 C#m7 E Dmaj7
naaaaahhh


||Dmaj7 F#m7 | C#m7 Dmaj7 |Bm7 C#m7 Dmaj7 |Bm7 C#m7  Dmaj7 || x1


C#m7 Dmaj7                    F#m7
          Du sagst, wir haben 
C#m7              Dmaj7
     ha Internet.
Bm7 C#m7   Dmaj7
    Ich   sage, was ist das
Bm7 C#m7   Dmaj7      
         Internet?


C#m7 Dmaj7                  F#m7
          Was ist dein Flüstern 
C#m7        Dmaj7            
        ohne seinen
Bm7 C#m7   Dmaj7
     Ha   Hauch? Es ist aus!
Bm7 C#m7   Dmaj7
               Dafür Applaus!


[Solo]

e|------------------------|--------------------------| 
B|--10-10-7--7-\5--5--5-5-|5b9-r5--5--5h7------------| 
G|------------------------|---------------6----\4----| 
D|------------------------|--------------------------| 
A|------------------------|--------------------------| 
E|------------------------|--------------------------|

e|------------------------|--------------------------| 
B|10-10-7-7--\5-----------|--------------------------| 
G|--------------6\4\2-----|--------------------------| 
D|--------------------4\2-|4/7-----------------------| 
A|------------------------|--------------------------| 
E|------------------------|--------------------------|

e|------------------------|--------------------------| 
B|--10-10-7--7-\5--5--5-5-|5b9-r5--5--5-5-9---/10----| 
G|------------------------|--------------------------| 
D|------------------------|--------------------------| 
A|------------------------|--------------------------| 
E|------------------------|--------------------------|

e|------------------------|--------------------------| 
B|10-10-7-7--\5-----------|--------------------------| 
G|--------------6\4\2-----|--------------------------| 
D|--------------------4\2-|4/7-----------------------| 
A|------------------------|--------------------------| 
E|------------------------|--------------------------|

e|------------------------|--------------------------| 
B|--10-10-7--7-\5--5--5-5-|5b9-r5--5--5h7------------| 
G|------------------------|---------------6--h7\4----| 
D|------------------------|--------------------------| 
A|------------------------|--------------------------| 
E|------------------------|--------------------------|

e|------------------------|--------------------------| 
B|10-10-7-7--\5-----------|--------------------------| 
G|--------------6\4\2-----|--------------------------| 
D|--------------------4\2-|4/7-----------------------| 
A|------------------------|--------------------------| 
E|------------------------|--------------------------|

e|------------------------|--------------------------| 
B|--10-10-7--7-\5--5--5-5-|5b9-r5--5--5-5-9---/10----| 
G|------------------------|--------------------------| 
D|------------------------|--------------------------| 
A|------------------------|--------------------------| 
E|------------------------|--------------------------|

e|------------------------|--------------------------| 
B|10-10-7-7--\5-----------|--------------------------| 
G|--------------6\4\2-----|--------------------------| 
D|--------------------4\2-|4/7-----------------------| 
A|------------------------|--------------------------| 
E|------------------------|--------------------------|

                Ha, es ist aus! Dafür Applaus!

NOTE: There's another guitar playing a diffrent solo part on top, 
      but the main solo stays the same. 




[Outro]

|| Gmaj7 | F#m |Em F#m Gmaj7 |Em F#m Gmaj7|| x5




*******************************************************************************
Suggest correction
Give kudos to tab author, rate the tab!
1 2 3 4 5
comments
print report bad tab
guest
You may want to rate the tab now too:
select rating
Wanna post a correction for this tab? Suggest correction