Oops, an error
Loading. Please wait.

Maschin Tab

version 1
version 1

Whole song

Interactive

199 views 12 this week
no commentswrite comment
1 2 3 4 5
3 more votes to show rating
add to favorites
launch autoscroll
font size
0
reset
how to read this tab
guitar tuner
Autoscroll
slow
fast
+/-
esc
set tempo
stop
Help us to improve Ultimate-Guitar.com Take our survey!
×
Author
Song: Maschin
Artist: Bilderbuch
Tabbed by: Galva94

Intro 
   Cm     (synth + guitar)                                           Fm (guitar)
e|-3-3-3-3-3-3-3-3-|-3-3-3-3-3-3-3-3-|-3-3-3-3-3-3-3-3-|-3-3---------4-4-|
B|-4-4-4-4-4-4-4-4-|-4-4-4-4-4-4-4-4-|-4-4-4-4-4-4-4-4-|-4-4---------6-6-|
G|-5-5-5-5-5-5-5-5-|-5-5-5-5-5-5-5-5-|-5-5-5-5-5-5-5-5-|-5-5---------5-5-|
D|-5-5-5-5-5-5-5-5-|-5-5-5-5-5-5-5-5-|-5-5-5-5-5-5-5-5-|-5-5---------3-3-|
A|-3-3-3-3-3-3-3-3-|-3-3-3-3-3-3-3-3-|-3-3-3-3-3-3-3-3-|-3-3-------------|
E|-----------------|-----------------|-----------------|-----------------|

       Cm      Fm    Cm                                      Cm      Fm
e|-4---3-3-3---4---|-3-3-3-3---------|-----------------|-----3-3-3---4-4-|
B|-6---4-4-4---6---|-4-4-4-4---------|-----------------|-----4-4-4---6-6-|
G|-5---5-5-5---5---|-5-5-5-5---------|-----------------|-----5-5-5---5-5-|
D|-3---5-5-5---3---|-5-5-5-5---------|-----------------|-----5-5-5---3-3-|
A|-----3-3-3-------|-3-3-3-3---------|-----------------|-----3-3-3-------|
E|-----------------|-----------------|-----------------|-----------------|

       Cm      Fm    Cm 
e|-4---3-3-3---4---|-3-3-3-3---------|-----------------|-----------------|
B|-6---4-4-4---6---|-4-4-4-4---------|-----------------|-----------------|
G|-5---5-5-5---5---|-5-5-5-5---------|-----------------|-----------------|
D|-3---5-5-5---3---|-5-5-5-5---------|-----------------|-----------------|
A|-----3-3-3-------|-3-3-3-3---------|-----------------|-----------------|
E|-----------------|-----------------|-----------------|-----------------|



First verse (no much guitar)


Intro again
   Cm     (synth + guitar)
e|-3-3-3-3-3-3-3-3-|-3-3-3-3-3-3-3-3-|-3-3-3-3-3-3-3-3-|-3-3-------------|
B|-4-4-4-4-4-4-4-4-|-4-4-4-4-4-4-4-4-|-4-4-4-4-4-4-4-4-|-4-4-------------|
G|-5-5-5-5-5-5-5-5-|-5-5-5-5-5-5-5-5-|-5-5-5-5-5-5-5-5-|-5-5-------------|
D|-5-5-5-5-5-5-5-5-|-5-5-5-5-5-5-5-5-|-5-5-5-5-5-5-5-5-|-5-5-------------|
A|-3-3-3-3-3-3-3-3-|-3-3-3-3-3-3-3-3-|-3-3-3-3-3-3-3-3-|-3-3-------------|
E|-----------------|-----------------|-----------------|-----------------|



Second verse



Chorus 2x

   Cm          Fm        Cm      Fm    Gm                               
e|-3-3-3-------4-4-|-4---3-3-3---4---|-6-6-6-6-----x-x-|-----------------|
B|-4-4-4-------6-6-|-6---4-4-4---6---|-8-8-8-8-----x-x-|-----------------|
G|-5-5-5-------5-5-|-5---5-5-5---5---|-7-7-7-7-----x-x-|-----------------|
D|-5-5-5-------3-3-|-3---5-5-5---3---|-5-5-5-5-----x-x-|-----------------|
A|-3-3-3-----------|-----3-3-3-------|-------------x-x-|-----------------|
E|-----------------|-----------------|-------------x-x-|-----------------|


   Gm          Fm        Cm      Fm    Cm                               
e|-6-6-6-------4-4-|-4---3-3-3---4---|-3-3-3-3---------|-----------------|
B|-8-8-8-------6-6-|-6---4-4-4---6---|-4-4-4-4---------|-----------------|
G|-7-7-7-------5-5-|-5---5-5-5---5---|-5-5-5-5---------|-----------------|
D|-5-5-5-------3-3-|-3---5-5-5---3---|-5-5-5-5---------|-----------------|
A|-----------------|-----3-3-3-------|-3-3-3-3---------|-----------------|
E|-----------------|-----------------|-----------------|-----------------|

Post chorus
   Cm     (synth + guitar)                                          
e|-3-3-3-3-3-3-3-3-|-3-3-3-3-3-3-3-3-|-3-3-3-3-3-3-3-3-|-3-3-------------|
B|-4-4-4-4-4-4-4-4-|-4-4-4-4-4-4-4-4-|-4-4-4-4-4-4-4-4-|-4-4-------------|
G|-5-5-5-5-5-5-5-5-|-5-5-5-5-5-5-5-5-|-5-5-5-5-5-5-5-5-|-5-5~~~~~~~~~~~--|
D|-5-5-5-5-5-5-5-5-|-5-5-5-5-5-5-5-5-|-5-5-5-5-5-5-5-5-|-5-5-------------|
A|-3-3-3-3-3-3-3-3-|-3-3-3-3-3-3-3-3-|-3-3-3-3-3-3-3-3-|-3-3-------------|
E|-----------------|-----------------|-----------------|-----------------|


Verse 2x (almost clean)
e|-----------------|-----------------|-----------------|-----------------|
B|-----------------|-----------------|-----------------|-----------------|
G|-17--------------|-15--------------|-14--------------|-12--------------|
D|-----------------|-----------------|-----------------|-----------------|
A|-----------------|-----------------|-----------------|-----------------|
E|-----------------|-----------------|-----------------|-----------------|


Chorus 2x

   Cm          Fm        Cm      Fm    Gm                               
e|-3-3-3-------4-4-|-4---3-3-3---4---|-6-6-6-6-----x-x-|-----------------|
B|-4-4-4-------6-6-|-6---4-4-4---6---|-8-8-8-8-----x-x-|-----------------|
G|-5-5-5-------5-5-|-5---5-5-5---5---|-7-7-7-7-----x-x-|-----------------|
D|-5-5-5-------3-3-|-3---5-5-5---3---|-5-5-5-5-----x-x-|-----------------|
A|-3-3-3-----------|-----3-3-3-------|-------------x-x-|-----------------|
E|-----------------|-----------------|-------------x-x-|-----------------|


   Gm          Fm        Cm      Fm    Cm                               
e|-6-6-6-------4-4-|-4---3-3-3---4---|-3-3-3-3---------|-----------------|
B|-8-8-8-------6-6-|-6---4-4-4---6---|-4-4-4-4---------|-----------------|
G|-7-7-7-------5-5-|-5---5-5-5---5---|-5-5-5-5---------|-----------------|
D|-5-5-5-------3-3-|-3---5-5-5---3---|-5-5-5-5---------|-----------------|
A|-----------------|-----3-3-3-------|-3-3-3-3---------|-----------------|
E|-----------------|-----------------|-----------------|-----------------|




Bass part



guitar solo (not accurate, listen to the song..)
e|-----------------|-----------------|-----------------|-----------------|
B|-----------------|-----------------|-----------------|-----------------|
G|-17-\\--------17-|-15-~--\------15-|-14-~---\-----14-|-12-~----\-------|
D|-----------------|-----------------|-----------------|-----------------|
A|-----------------|-----------------|-----------------|-----------------|
E|-----------------|-----------------|-----------------|-----------------|



Chorus 2x

   Cm          Fm        Cm      Fm    Gm                               
e|-3-3-3-------4-4-|-4---3-3-3---4---|-6-6-6-6-----x-x-|-----------------|
B|-4-4-4-------6-6-|-6---4-4-4---6---|-8-8-8-8-----x-x-|-----------------|
G|-5-5-5-------5-5-|-5---5-5-5---5---|-7-7-7-7-----x-x-|-----------------|
D|-5-5-5-------3-3-|-3---5-5-5---3---|-5-5-5-5-----x-x-|-----------------|
A|-3-3-3-----------|-----3-3-3-------|-------------x-x-|-----------------|
E|-----------------|-----------------|-------------x-x-|-----------------|


   Gm          Fm        Cm      Fm    Cm                               
e|-6-6-6-------4-4-|-4---3-3-3---4---|-3-3-3-3---------|-----------------|
B|-8-8-8-------6-6-|-6---4-4-4---6---|-4-4-4-4---------|-----------------|
G|-7-7-7-------5-5-|-5---5-5-5---5---|-5-5-5-5---------|-----------------|
D|-5-5-5-------3-3-|-3---5-5-5---3---|-5-5-5-5---------|-----------------|
A|-----------------|-----3-3-3-------|-3-3-3-3---------|-----------------|
E|-----------------|-----------------|-----------------|-----------------|


Post chorus
   Cm     (synth + guitar)                                          
e|-3-3-3-3-3-3-3-3-|-3-3-3-3-3-3-3-3-|-3-3-3-3-3-3-3-3-|-3-3-------------|
B|-4-4-4-4-4-4-4-4-|-4-4-4-4-4-4-4-4-|-4-4-4-4-4-4-4-4-|-4-4-------------|
G|-5-5-5-5-5-5-5-5-|-5-5-5-5-5-5-5-5-|-5-5-5-5-5-5-5-5-|-5-5~~~~~~~~~~~--|
D|-5-5-5-5-5-5-5-5-|-5-5-5-5-5-5-5-5-|-5-5-5-5-5-5-5-5-|-5-5-------------|
A|-3-3-3-3-3-3-3-3-|-3-3-3-3-3-3-3-3-|-3-3-3-3-3-3-3-3-|-3-3-------------|
E|-----------------|-----------------|-----------------|-----------------|


End
Suggest correction
Give kudos to tab author, rate the tab!
1 2 3 4 5
comments
print report bad tab
guest
You may want to rate the tab now too:
select rating
Wanna post a correction for this tab? Suggest correction