Oops, an error
Loading. Please wait.

Justice And Honor Tab

version 1
version 1

Whole song

Interactive

688 views 12 this week
no commentswrite comment
1 2 3 4 5
please rate
add to favorites
launch autoscroll
font size
0
reset
how to read this tab
guitar tuner
Autoscroll
slow
fast
+/-
esc
set tempo
stop
Help us to improve Ultimate-Guitar.com Take our survey!
×
Author
                      Justice and Honor - Bill Frisell

Ghost Town (2000)
Composed by Bill Frisell

Tab by Aoakaua


E||-----0-----------------|---------0------------|----------------0-----|
B||-----------------------|------4---------------|----------------------|
G||--0--------------------|----------------------|----------0--0--------|
D||------------0h2--------|----------------------|----------------------|
A||--------3--------------|-----------------3----|-------------------3--|
E||-----------------------|------------1---------|----------------------|



----------------0-------|---------------------|-----------------------|
----------1--4----------|------------------1--|------------0----1-----|
------------------------|-------------2-------|-----------------------|
--0h2-------------------|---------------------|-------2---------------|
------------------------|--3------------------|-----------------------|
-------------------1----|---------------------|--2------------------1-|



----------------------|-------------------|--3----------------4----1-|
----------------------|-------------------|--------------3-----------|
---------2----0-------|-------------------|-----------0--------------|
----1-----------------|-------------------|--------0-------------0---|
----------------------|------2------------|--------------------------|
-------------------0--|-------------------|-----3--------------------|



-----------0--------|-------3---------4----1--|-------0-----------0------|
--------------------|----0--3-----------------|-----------3--1-----------|
---1----------------|-------0-------0---------|--1-----------------------|
--------------------|-------0----0-------0----|--------------------------|
--------------------|-------x-----------------|--------------------------|
--------------------|-------3-----------------|----------------------3---|



---------------------|-----------------3---|-----------------------|
------------------3--|-------------1-------|------------------1----|
-------0-------------|---------------------|---------------0-------|
--3------------------|---------------------|-----------------------|
---------------------|---------------------|------2----------------|
---------------------|--4------------------|--0------------------1-|



------0---------------|------------------------|----------------------|
--------------3-------|------------1-----------|------1---------------|
---0----------0-------|--------------------0h2-|------------------0-0-|
--------------0-------|---------------2--------|---------0------------|
----------------------|----------0-------------|----------------------|
-----------3----------|------------------------|------1---------------|



---------3-----------|--------------------|--------------------|
---3-----------------|--------------1-----|--------1-----------|
---------------------|--------------------|-----------------0--|
---------------------|------------------2-|--------------------|
------3--------------|--------------0-----|--------------------|
---------------------|--------------------|--------1-----------|



---------3-------------|---------------------|----------------------|
---3--------------3----|----------1----------|--1-----------3-------|
--------------0--------|---------------------|-----------0----------|
-----------------------|-------------2----2--|----------------------|
------3----------------|----------0----------|-----------------3----|
-----------------------|---------------------|--1-------------------|



--3----------------|--------------0------------|-----------0------------|
--3----------------|---------------------------|-----1--4---------------|
--0----------------|------0--0-----------------|--0---------------------|
-------------------|-----------------0-----0h2-|------------------------|
-------------------|--------------------3------|------------------3-----|
-------------------|---------------------------|--------------1---------|



--------------0-------------|--------0--------------|----------------------|
----------------------------|--1--4-----------------|----------1-----------|
------0--0---------------0--|-----------------------|------2---------2-----|
--------------------0h2-----|-----------------------|----------------2-----|
-----------------3----------|----------------3------|----------------------|
----------------------------|------------1----------|-------------2--------|



------------------------|-------------------|--3--------------4b---|
--0---1-----------------|-------------------|--3-------------------|
------------2----0------|-------------------|--0---------0---------|
------------1----0------|-------------------|--0------0------------|
------------------------|-----2-------------|----------------------|
---------1------------0-|-------------------|----------------------|



--1--------------0----|---------3----3--3h-4p-|--1-------0--------0--------|
----------------------|---------3-------------|-------------3--1-----------|
--------1-------------|---------0-------------|-----1----------------------|
-----0----------------|-----------------------|--0-----------------------3-|
----------------------|-----------------------|----------------------------|
----------------------|------3----------------|-----------------------3----|



----------------------|-------3---------------|---------------0-------|
--------3-------------|--1--------------------|------1------------3---|
---0------------------|--------------------0--|------------0----------|
------0---------------|-----------------------|-----------------------|
----------------------|-------------2---------|-----------------------|
------------4---------|----------0------------|---------1-------------|



------------------------|--------------------------|--------3------------|
--------------1---------|------1-------------------|--3------------------|
---------0--------------|------------------0--0----|-----0---------------|
-----0-----------2---2--|---2----------------------|---------------------|
--------------0---------|--------------------------|--3------------------|
--3---------------------|------1---1---1-----------|---------------------|



----------------------|----------------------------|------3-------------|
--------1-------------|------1-------------------3-|--------------------|
----------------------|---------0------0--0--------|---0----------------|
-----------2------2---|----------------------------|--------------------|
------0---------------|------------------------3---|--------------------|
----------------------|----1-----------------------|--------------------|



----------------------|------------------------|--------------------------3-|
------------1---------|------------1-----------|------------------3---------|
----------------------|---0-2----------------0-|--------0--0---------0------|
---------------2---2--|---2------------0h--2---|----------------------------|
----------0-----------|------------------------|----------------3-----------|
----------------------|------------1-----------|----------------------------|



|-----------------------|-----------------------||----------------------|
|--------6---------6----|-------6---------6-----||-------6---------6----|
|*-------7---------7----|-------7---------7----*||-------7---------7----|
|*-------8---------8----|-------8---------8----*||-------8---------8----|
|--------8----6---------|-------8---------8-----||-------8----6---------|
|---6-------------------|--6---------6----------||--6-------------------|



----------------------|----------------------|----------------------||
-------6---------6----|-------6---------6----|-------6---------6----||
-------7---------7----|-------7---------7----|-------7---------7----||
-------8---------8----|-------8---------8----|-------8---------8----||
-------8---------8----|-------8----6---------|-------8---------8----||
--6---------6---------|--6-------------------|--6---------6---------||



                                               10x
|-----------3------------|----------------------||----------3------------|
|-----3--4-----6---------|----------------------||----3--4-----6---------|
|*----------------3------|----------3----------*||----------------3------|
|*-----------------------|----3--5-------------*||-----------------------|
|------------------------|----------------------||-----------------------|
|------------------------|----------------------||-----------------------|



---------------------|----------3------------|---------------------||
---------------------|----3--4-----6---------|---------------------||
----------3----------|----------------3------|----------3----------||
----3--5-------------|-----------------------|----3--5-------------||
---------------------|-----------------------|---------------------||
---------------------|-----------------------|---------------------||


************************************

| /   slide up
| \   slide down
| h   hammer-on
| p   pull-off
| ~   vibrato
| +   harmonic
| x   Mute note
| b   Bend
| pb  Pre-bend
| br  Bend release
| pbr Pre-bend release
| brb Bend release bend

************************************
Suggest correction
What's this?
You can suggest a correction to this tab. Community and Mods will review your correction and vote to approve or reject it.
comments
We did not receive enough feedback on this tab! Please rate:
print report bad tab
1 2 3 4 5
guest
You may want to rate the tab now too:
select rating
Please do not post tabs as comments. Select "correction" instead!