Oops, an error
Loading. Please wait.

Rock Around The Clock Chords

version 1
version 1

Whole song

Interactive

29,161 views 3 this week
2 commentsread comments
1 2 3 4 5
1 last vote to show rating
add to favorites
launch autoscroll
font size
0
reset
transpose
0
reset
display chords
guitar tuner
Autoscroll
slow
fast
+/-
esc
set tempo
stop
Help us to improve Ultimate-Guitar.com Take our survey!
×
Author
Difficulty
#----------------------------------PLEASE NOTE---------------------------------#
#This file is the author's own work and represents their interpretation of the #
#song. You may only use this file for private study, scholarship, or research. #
#------------------------------------------------------------------------------#

ROCK AROUND THE CLOCK
As recorded by bill halley and his comets





 
Arranged by sam hunt
 

Gtr I (E A D G B E) - 'Untitled'


  swing rhythm Q=175(8=s8)
  A                    A
 4/4
  Gtr I
  Q  H    Q    H    Q  E E   Q  Q  H
|-0----------|---------0-0-|-0----------|
|-2----------|---------2-2-|-2----------|
|-2----------|---------2-2-|-2----------|
|-2----------|---------2-2-|-2----------|
|-0----------|---------0-0-|-0----------|
|------------|-------------|------------|


          A
  H    Q  E E   Q  Q  H      W
|---------0-0-|-0----------|------|
|---------2-2-|-2----------|------|
|---------2-2-|-2----------|------|
|---------2-2-|-2----------|------|
|---------0-0-|-0----------|------|
|-------------|------------|------|


     E                           A
  Q  Q  Q  Q    Q  Q  Q  E E     Q  Q  Q  Q
|----0-----0--|----0-----0-0-||--0--0--0--0-|
|----0-----0--|----0-----0-0-||o-2--2--2--2-|
|----1-----1--|----1-----1-1-||--2--2--2--2-|
|----2-----2--|----2-----2-2-||--2--2--2--2-|
|----2-----2--|----2-----2-2-||o-0--0--0--0-|
|----0-----0--|----0-----0-0-||-------------|


  Q  Q  E E Q    Q  Q  Q  Q    Q  Q  E E Q
|-0--0--0-0-0--|-0--0--0--0--|-0--0--0-0-0-|
|-2--2--2-2-2--|-2--2--2--2--|-2--2--2-2-2-|
|-2--2--2-2-2--|-2--2--2--2--|-2--2--2-2-2-|
|-2--2--2-2-2--|-2--2--2--2--|-2--2--2-2-2-|
|-0--0--0-0-0--|-0--0--0--0--|-0--0--0-0-0-|
|--------------|-------------|-------------|


  D                             A
  Q  Q  Q  Q    Q  Q  E E E E   Q  Q  Q  Q
|-2--2--2--2--|-2--2--2-2-2-2-|-0--0--0--0-|
|-3--3--3--3--|-3--3--3-3-3-3-|-2--2--2--2-|
|-2--2--2--2--|-2--2--2-2-2-2-|-2--2--2--2-|
|-0--0--0--0--|-0--0--0-0-0-0-|-2--2--2--2-|
|-------------|---------------|-0--0--0--0-|
|-------------|---------------|------------|


                  E
  Q  Q  E E E E   Q  Q  Q  Q    Q  Q  E E E E
|-0--0--0-0-0-0-|-0--0--0--0--|-0--0--0-0-0-0-|
|-2--2--2-2-2-2-|-0--0--0--0--|-0--0--0-0-0-0-|
|-2--2--2-2-2-2-|-1--1--1--1--|-1--1--1-1-1-1-|
|-2--2--2-2-2-2-|-2--2--2--2--|-2--2--2-2-2-2-|
|-0--0--0-0-0-0-|-2--2--2--2--|-2--2--2-2-2-2-|
|---------------|-0--0--0--0--|-0--0--0-0-0-0-|


  A
  Q  Q  Q  Q    Q  Q  E E E E
|-0--0--0--0--|-0--0--0-0-0-0--||
|-2--2--2--2--|-2--2--2-2-2-2-o||
|-2--2--2--2--|-2--2--2-2-2-2--||
|-2--2--2--2--|-2--2--2-2-2-2--||
|-0--0--0--0--|-0--0--0-0-0-0-o||
|-------------|----------------||




--------------------------------------------------------------------------------


Duration Legend
---------------
W - whole; H - half; Q - quarter; E - 8th; S - 16th; T - 32nd; X - 64th; a - acciaccatura
+ - note tied to previous; . - note dotted; .. - note double dotted
Uncapitalized letters represent notes that are staccato (1/2 duration)
Irregular groupings are notated above the duration line
Duration letters will always appear directly above the note/fret number it represents the
duration for.  Duration letters with no fret number below them represent rests.  Multi-
bar rests are notated in the form Wxn, where n is the number of bars to rest for.  Low
melody durations appear below the staff

Tablature Legend
----------------
 h   - hammer-on
 p   - pull-off
 b   - bend
 pb  - pre-bend
 r   - bend release (if no number after the r, then release immediately)
 /\  - slide into or out of (from/to "nowhere")
 s   - legato slide
 S   - shift slide
 - natural harmonic
[n]  - artificial harmonic
n(n) - tapped harmonic
 ~   - vibrato
 tr  - trill
 T   - tap
 TP  - trem. picking
 PM  - palm muting
\n/  - tremolo bar dip; n = amount to dip
 \n  - tremolo bar down
 n/  - tremolo bar up
/n\  - tremolo bar inverted dip
 =   - hold bend; also acts as connecting device for hammers/pulls
 <> - volume swell (louder/softer)
 x   - on rhythm slash represents muted slash
 o   - on rhythm slash represents single note slash

Misc Legend
-----------
 |  - bar
||  - double bar
||o - repeat start
o|| - repeat end
*|  - double bar (ending)
 :  - bar (freetime)
 $  - Segno
 &  - Coda
Tempo markers -  = BPM(8/16=s8/s16), where s8 = swing 8ths, s16 = swing 16ths



--------------------------------------------------------------------------------

** Generated using Power Tab Editor by Brad Larsen: The Official Power Tab Web Site
Suggest correction
Give kudos to tab author, rate the tab!
1 2 3 4 5
comments
print report bad tab
2 comments total.
0 reply
fudge man456 10 Nov 30, 2008 04:25 AM

bad

0 reply
JacobLampman 16 Mar 20, 2009 12:17 PM

Horrible.

guest
You may want to rate the tab now too:
select rating
Wanna post a correction for this tab? Suggest correction