Oops, an error
Loading. Please wait.

See You Later Alligator Tab

version 1
version 1

Whole song

Interactive

5,789 views 1 this week
no commentswrite comment
1 2 3 4 5
1 last vote to show rating
add to favorites
launch autoscroll
font size
0
reset
how to read this tab
guitar tuner
Autoscroll
slow
fast
+/-
esc
set tempo
stop
Help us to improve Ultimate-Guitar.com Take our survey!
×
Author
This is the way I played it at my school a couple of days ago, it's all exept outro. You 
to work a little on the rythm yourself, but here it is:

Verse:

e|-------------------------------|-------------------------------|
B|-------------------------------|-------------------------------|
G|-------------------------------|-------------------------------|
D|-------------------------5-4-0-|-------------------------5-4-0-|
A|---------------------0-5-------|---------------------0-5-------|
E|-------------------------------|-------------------------------|

e|-------------------------------|-------------------------------|
B|-------------------------------|-------------------------------|
G|-------------------------5-4-0-|-------------------------------|
D|---------------------0-5-------|-------------------------5-4-0-|
A|-------------------------------|---------------------0-5-------|
E|-------------------------------|-------------------------------|

e|-------------------------------|-------------------------------|
B|-------------------------------|-------------------------------|
G|-------------------------------|-------------------------------|
D|-------------------------------|-------------------------5-4-0-|
A|-------------------------5-4-0-|---------------------0-5-------|
E|---------------------0-5-------|-------------------------------|

Chorus:

e|-------------------------------|-------------------------------|
B|-------------------------------|-------------------------------|
G|-------------------------------|-------------------------------|
D|-------------------------------|-------------------------------|
A|---------------5-2-0-5-5-2-0-5-|---------------5-2-0-5-5-2-0-5-|
E|-------------------------------|-------------------------------|

e|-------------------------------|-------------------------------|
B|-------------------------------|-------------------------------|
G|-------------------------------|-------------------------------|
D|---------------5-2-0-5-5-2-0-5-|-------------------------------|
A|-------------------------------|---------------5-2-0-5-5-2-0-5-|
E|-------------------------------|-------------------------------|

e|-------------------------------|-------------------------------|
B|-------------------------------|-------------------------------|
G|-------------------------------|-------------------------------|
D|-------------------------------|-------------------------------|
A|-------------------------------|---------------5-2-0-5-5-2-0-5-|
E|---------------5-2-0-5-5-2-0-5-|-------------------------------|


Solo:

e|----------------------------------------------------------------|
B|-16-16-16-16-16-16-15h16-16-16-16-16-16-15h16-16-16-16-16-16-15-|
G|----------------------------------------------------------------|
D|----------------------------------------------------------------|
A|----------------------------------------------------------------|
E|----------------------------------------------------------------|

e|------------------------------------------------------------------|
B|-16-15-16-15-16-15-16-15-16\\\\\\\\\\\\\\\1-----------------------|
G|------------------------------------------------------------------|
D|------------------------------------------------------------------|
A|------------------------------------------------------------------|
E|------------------------------------------------------------------|

e|----------------------------------------------------------------|
B|-11-13-11-13-11-13-11-13-11-13-11-13-11-13-11-11-11-13-11-11----|
G|----------------------------------------------------------------|
D|----------------------------------------------------------------|
A|----------------------------------------------------------------|
E|----------------------------------------------------------------|

e|----------------------|
B|----------------------|
G|-8-8-8-8-8-8-8-8-8----|
D|----------------------|
A|----------------------|
E|----------------------|


Verse 2

e|-------------------------------|-------------------------------|
B|-------------------------------|-------------------------------|
G|-------------------------------|-------------------------------|
D|-------------------------------|-------------------------------|
A|---------------5-2-0-5-5-2-0-5-|---------------5-2-0-5-5-2-0-5-|
E|-------------------------------|-------------------------------|

e|-------------------------------|-------------------------------|
B|-------------------------------|-------------------------------|
G|-------------------------------|-------------------------------|
D|---------------5-2-0-5-5-2-0-5-|-------------------------------|
A|-------------------------------|---------------5-2-0-5-5-2-0-5-|
E|-------------------------------|-------------------------------|

e|-------------------------------|-------------------------------|
B|-------------------------------|-------------------------------|
G|-------------------------------|-------------------------------|
D|-------------------------------|-------------------------------|
A|-------------------------------|---------------5-2-0-5-5-2-0-5-|
E|---------------5-2-0-5-5-2-0-5-|-------------------------------|

Chorus 2:

e|-------------------------------|-------------------------------|
B|-------------------------------|-------------------------------|
G|-------------------------------|-------------------------------|
D|-------------------------5-4-0-|-------------------------5-4-0-|
A|---------------------0-5-------|---------------------0-5-------|
E|-------------------------------|-------------------------------|

e|-------------------------------|-------------------------------|
B|-------------------------------|-------------------------------|
G|-------------------------5-4-0-|-------------------------------|
D|---------------------0-5-------|-------------------------5-4-0-|
A|-------------------------------|---------------------0-5-------|
E|-------------------------------|-------------------------------|

e|-------------------------------|-------------------------------|
B|-------------------------------|-------------------------------|
G|-------------------------------|-------------------------------|
D|-------------------------------|-------------------------5-4-0-|
A|-------------------------5-4-0-|---------------------0-5-------|
E|---------------------0-5-------|-------------------------------|

Verse 1
Chorus 1
Verse 1
Chorus 1
Solo
Verse 1
Verse 2
Chorus 2 (x2)
(Outro)
Suggest correction
Give kudos to tab author, rate the tab!
1 2 3 4 5
comments
print report bad tab
guest
You may want to rate the tab now too:
select rating
Wanna post a correction for this tab? Suggest correction