Oops, an error
Loading. Please wait.
We have an official Rock Around The Clock tab made by UG professional guitarists. Check out the tab »
×
41,514 views 81 this week
2 commentsread comments
1 2 3 4 5
x 7
add to favorites
×
Save as Personal and add changes to this tab that will be seen only by you. Learn more ›
×
You can save this tab as Personal to edit and correct it or add notes. All changes will be seen only by you. Learn more »
launch autoscroll
font size
0
reset
guitar tuner
edit
Autoscroll
slow
fast
+/-
esc
set tempo
stop
Author
Difficulty
Unregistered
[Gtr 1]
(E A D G) - 'Untitled'
  4/4
[Gtr 1]
   W   H Q Q   Q Q H   H Q Q   Q Q H   W   Q Q Q Q   Q Q Q Q     Q Q Q Q
G|---|-------|-------|-------|-------|---|---------|---------|----------|
D|---|-------|-------|-------|-------|---|---------|---------|o-----2-4-|
A|---|-----0-|-0-----|-----0-|-0-----|---|---7---7-|---7---7-|o-0-4-----|
E|---|-------|-------|-------|-------|---|---------|---------|----------|

   Q Q Q Q   Q Q Q Q   Q Q Q Q   Q Q Q Q   Q Q Q Q   Q Q Q Q   Q Q Q Q
G|-0-------|---------|-0-------|-----2-4-|-5-4-2---|---------|-0--------|
D|---4-2---|-----2-4-|---4-2---|-0-4-----|-------4-|-----2-4-|---4-2----|
A|-------4-|-0-4-----|-------4-|---------|---------|-0-4-----|-------4--|
E|---------|---------|---------|---------|---------|---------|----------|

   Q Q Q Q   Q Q Q Q   Q Q Q Q   Q Q Q Q
G|---------|---------|---------|----------|
D|---------|-0-------|---------|---------o|
A|-----2-4-|---4-2---|-0-2-4-2-|-0-------o|
E|-0-4-----|-------4-|---------|---4-2-0--|

   Q Q Q Q   Q Q Q Q   Q Q H    Q.  E  Q Q
G|---------|---------|-------|-------------|
D|---------|---------|-------|-------------|
A|-0-0-4-4-|-5-5-6-6-|-7-----|-------------|
E|---------|---------|-------|--0---4--5---|

            
            
Suggest correction
Creating personal tab
Creating personal tab
You can edit any tab online and save it as your Personal.

You can edit, replace or remove any tab part or add personal notes – all changes will be seen only by you.

Personal tabs can be accessed anytime from any device, even offline.
Learn more »
comments
print report bad tab
2 comments total.
0 reply
jayoel 110 Oct 25, 2007 02:10 PM

could you do shake, rattle and roll Please

+1 reply
Heideck 80 Jan 12, 2011 01:39 PM

not accurate at all

guest
Wanna post a correction for this tab? Suggest correction