Oops, an error
Loading. Please wait.

Big Sandy River Tab

2,660 views 15 this week
no commentswrite comment
1 2 3 4 5
3 more votes to show rating
add to favorites
launch autoscroll
font size
0
reset
how to read this tab
guitar tuner
Autoscroll
slow
fast
+/-
esc
set tempo
stop
Author
Capo
2nd fret
Bill Monroe - Big Sandy River
Standard Tuning
Capo 2

Order: P1 + P1 Ending 1
       P1 + P1 Ending 2
       P2 + P2 Ending 1
       P2 + P2 Ending 2 

Last 2 Notes of Ending 1 (Both) are lead notes for when you repeat the part a 2nd time.    

P1:
|--0-2-3---------0----------------------------------------0-2----|
|--------0-1-2-3---3-1-0-------------------------------3---------|
|------------------------2-0---------0-2-0-----------2-----------|
|----------------------------2-0-2-4-------4-2-0-2-4-------------|
|----------------------------------------------------------------|
|----------------------------------------------------------------|

                                                    |P1 Ending 1 |         
|--0-2-3---------0-|-----------------|--------------|------------|
|--------0-1-2-3---|-3-1-0-----------|--------------|------------|
|------------------|-------2-0-------|---0-2-0---2--|0-0-0-0-----|
|------------------|-----------2-0-2-|-4-------4----|------------|
|------------------|-----------------|--------------|------------|
|------------------|-----------------|--------------|------------|
                                                   
                                                    |P1 Ending 2 | 
                                                    |------------|
                                                    |0-0-0-0-----| 
                                                    |------------|
                                                    |------------|
                                                    |--------0-2-|
                                                    |------------|   
P2:                                                   
|----------------------------------------------------------------------|
|----------------------------------------------------------------------|
|--------------------------------------------0-2-0---2-0-----0---------|
|----------------------------0-2-0---2-0-2-4-------4-----2-0---2-0-----|
|------------0-2---0-2-3-2-3-------3-------------------------------2-0-|
|------3-2-3-----3-----------------------------------------------------|

                                                           |P2 Ending 1| 
|----------------------|-----------------|-----------------|-----------|
|----------------------|-----------------|-----------------|-----------|
|----------------------|-----------------|-------0-2-0---2-|0-0-0-0----|
|----------------------|-------0-2-0---2-|-0-2-4-------4---|-----------|
|------------0-2---0-2-|-3-2-3-------3---|-----------------|--------2-0|
|------3-2-3-----3-----|-----------------|-----------------|-----------|

                                                           |P2 Ending 1| 
                                                           |-----------|
                                                           |-----------|
                                                           |0-0-0-0----| 
                                                           |-----------|
                                                           |-----------|
                                                           |-----------|
Suggest correction
Give kudos to tab author, rate the tab!
1 2 3 4 5
comments
print report bad tab
guest
You may want to rate the tab now too:
select rating
Wanna post a correction for this tab? Suggest correction