Oops, an error
Loading. Please wait.

Jazz Prelude Tab

10 views 1 this week
no commentswrite comment
1 2 3 4 5
3 more votes to show rating
add to favorites
launch autoscroll
font size
0
reset
how to read this tab
guitar tuner
Autoscroll
slow
fast
+/-
esc
set tempo
stop
Help us to improve Ultimate-Guitar.com Take our survey!
×
Author
Difficulty
intermediate
--------------------------------------------------------------------------------------------------------------
                           Jazz Prelude - Bill Pitman
--------------------------------------------------------------------------------------------------------------

Swing Eighths

e|-----------1/2---|-----------------|-----------1/2---|-----------------|
B|---------3-------|-3---------------|---------3-----3-|-5-3-------------|
G|-----2-4---------|---------2-----2-|-----2-4---------|---------2-----2-|
D|-----------------|-----------------|-----------------|-----------------|
A|-----------------|---------0-----0-|-----------------|---------0-----0-|
E|-----------------|-----------------|-----------------|-----------------|

e|-----------1/2---|-----------------|---------------7-|-5---------------|
B|---------3-------|-3---------------|-------2-3-5/7---|-----------------|
G|-----2-4---------|---------2-----2-|---2-4-----------|-----------------|
D|-----------------|-----------------|-----------------|---------7-----7-|
A|-----------------|---------0-----0-|-----------------|---------0-----0-|
E|-----------------|-----------------|-----------------|-----------------|

e|-----------------|-----------------|---8-5-----------|-----------------|
B|-----6-8-6-------|-----------------|-------8-6-------|-----------------|
G|-----------7-----|-----------------|-------------5---|-7-------2-----2-|
D|-------------7---|-5-------7-----7-|-----------7-----|-----------------|
A|---------------8-|---------0-----0-|-----------------|---------0-----0-|
E|-----------------|-----------------|-----------------|-----------------|

e|-----------1/2---|-----------------|-----10-8-----------|-----5---5-5---5-|
B|---------3-------|-3---------------|----------10-8------|-----6---5-5---4-|
G|-----2-4---------|---------2-----2-|---------------10---|-7---5---4-4---3-|
D|-----------------|-----------------|--------------------|-----------------|
A|-----------------|---------0-----0-|--------------------|-----------------|
E|-----------------|-----------------|--------------------|-----------------|

e|-----------------|-----------------|-----------------|-----------1/2---|
B|-----------------|-----------------|-----------------|---------3-------|
G|---------2-------|-2-------2-------|-2-------2-------|-2---2-4---------|
D|-----------------|-----------------|-----------------|-----------------|
A|---------0-------|-0-------0-------|-0-------0-------|-0---------------|
E|-----------------|-----------------|-----------------|-----------------|

e|-----------------|-----------1/2---|-----------------|-----------1/2---|
B|-3-------3-----3-|---------3-----3-|-5-3-----7-----5-|---------3-------|
G|---------5-----4-|-----2-4---------|---------7-----5-|-----2-4---------|
D|---------6-----5-|-----------------|---------7-----5-|-----------------|
A|---------0-----0-|-----------------|---------0-----0-|-----------------|
E|-----------------|-----------------|-----------------|-----------------|

e|---------------5-|---------------7-|-5---------------|-----------------|
B|-3-------3-----3-|-------2-3-5-7---|---------5-----6-|-----6-8-6-------|
G|---------5-----4-|---2-4-----------|---------5-----5-|-----------7-----|
D|---------6-----5-|-----------------|---------5-----4-|-------------7---|
A|---------0-----0-|-----------------|-----------------|---------------8-|
E|-----------------|-----------------|---------5-----4-|-----------------|

e|-----------------|---8-5-----------|---------7-----6-|-----------1/2---|
B|---------5-----5-|-------8-6-------|---------7-----6-|---------3-------|
G|---------4-----4-|-------------5---|-7-------7-----5-|-----2-4---------|
D|-5-------3-----3-|-----------7-----|---------6-----5-|-----------------|
A|-----------------|-----------------|---------7-----6-|-----------------|
E|---------3-----4-|-----------------|-----------------|-----------------|

e|---------------5-|--------10----------|---------9-----3-|-----------------|
B|-3-------3-----3-|---8/10----8--------|---------6-----5-|-----------------|
G|---------5-----4-|-------------10-7---|-7-------6-----5-|-----------------|
D|---------6-----5-|------------------9-|---------5-----5-|-----------------|
A|---------0-----0-|--------------------|---------0-----0-|-----------------|
E|-----------------|--------------------|-----------------|-----------------|


************************************

| /   Slide up
| \   Slide down

************************************
Suggest correction
Give kudos to tab author, rate the tab!
1 2 3 4 5
comments
print report bad tab
guest
You may want to rate the tab now too:
select rating
Wanna post a correction for this tab? Suggest correction