Oops, an error
Loading. Please wait.

Satellites bass

109 views 3 this week
no commentswrite comment
1 2 3 4 5
3 more votes to show rating
add to favorites
×
Save as Personal and add changes to this tab that will be seen only by you. Learn more ›
×
You can save this tab as Personal to edit and correct it or add notes. All changes will be seen only by you. Learn more »
launch autoscroll
font size
0
reset
guitar tuner
edit
Autoscroll
slow
fast
+/-
esc
set tempo
stop
Here's the bass for Satellites. Easy- ish song, is you're an okay bassist, like me here.
I'll post the
chords to this as soon as I can.


Intro

Part 1
G|------------------------------------------------|
D|------------------------------------------------|
A|------------------5--5---3--3--3--3--3-3-3-3-5--|
E|--3-3--5--0--0--3------3------------------------|

G|------------------------------------------------|
D|------------------------------------------------|
A|------------------2--2-2-3--3--3--3--3-3-3-3-3--|
E|--3-3--5--0--0--3-------------------------------|

Alternate between the two

Verses

Pt 1
X3
G|------------------------------------------------|
D|------------------------------------------------|
A|--------------------------------------3--3-3--5-|
E|--3--3-3--3-3-2--2-2--2-2-1--1-1--1-3-----------|

Pt2
X1
G|------------------------------------------------|
D|--------------------4--2---------3--1-----------|
A|---------------------------------------3--3-3--3|
E|--3--3-3-3-3-2--2-2-------1--1-1----------------|

Pt 3
Both X1
G|------------------------------------------------|
D|------------------------------------------------|
A|--------------------------------------3--3-3--5-|
E|--3--3-3--3-3-2--2-2--2-2-1--1-1--1-1-----------|

G|------------------------------------------------|
D|--------------------4--2------------------------|
A|------------------------------------2--3--3-3--3|
E|--3--3-3-3-3-2--2-2-------1--1-1----------------|

Pt 4
G|------------------------------------------------------------------------------|
D|------------------------------------------------------------------------------|
A|--5--5-5--3--2--2-2-----3--3-3--------------5--5-5-5--5-3--3-3-3--3-----------|
E|---------------------------------3--5--5-5------------------------------------|

G|---------------------------------------------------------|
D|---------------------------------------------------------|
A|--3--3-3-3--3--3-3-3--3-3-3-3-3-3-3-3-3-8-8-8-8-8-8-8-8--|
E|---------------------------------------------------------|

Then stuff is repeated, and the order goes like this-

Part 1 X6

Part 4 X1

Repeat the first part of the outro x4

G|------------------------------------------------------|
D|------------------------------------------------------|
A|-3-3--5-------2---------------------------------------|
E|---------5-5-----3-3--5--0--0--0--0--0-0-0-0-0-0-0-0--|

G|----------------------------------------------------|
D|-------------------------2--2--2--3-3-3--3-3--3-3-3-|
A|-3-3--5-------2-------------------------------------|
E|---------5-5-----3-3--5-----------------------------|

And then the intro x2

G|------------------------------------------------|
D|------------------------------------------------|
A|------------------5--5---3--3--3--3--3-3-3-3-5--|
E|--3-3--5--0--0--3------3------------------------|

G|------------------------------------------------|
D|------------------------------------------------|
A|------------------2--2-2-3--3--3--3--3-3-3-3-3--|
E|--3-3--5--0--0--3-------------------------------|

And finally, part one another time.

            
            
Suggest correction
Creating personal tab
Creating personal tab
You can edit any tab online and save it as your Personal.

You can edit, replace or remove any tab part or add personal notes – all changes will be seen only by you.

Personal tabs can be accessed anytime from any device, even offline.
Learn more »
Give kudos to tab author, rate the tab!
1 2 3 4 5
comments
print report bad tab
guest
You may want to rate the tab now too:
select rating
Wanna post a correction for this tab? Suggest correction