Oops, an error
Loading. Please wait.

The Sally Gardens Tab

61 views 3 this week
no commentswrite comment
1 2 3 4 5
3 more votes to show rating
add to favorites
launch autoscroll
font size
0
reset
how to read this tab
guitar tuner
Autoscroll
slow
fast
+/-
esc
set tempo
stop
Help us to improve Ultimate-Guitar.com Take our survey!
×
Author
Difficulty
intermediate
Arranged by Bill Tyers(http://www.guitardownunder.com/_scores/sally_gardens.pdf)

Performed by Bill Tyers here: https://www.youtube.com/watch?time_continue=158&v=2njJS65xXZs




e|-----------------------------------------------0--------------------3------|
B|--------------0------------------------0--3----------------3-----------3---|
G|---0---2----------------2--0--2-----------------------0---------0----------|
D|-------------------0---------------0---------------2----2------------------|
A|-----------------------------------------------3-----------2---------------|
E|--------------3---------------2--------------------------------------------|

e|---0-------------------------------------------------------------|
B|----------3--0---------------------------------------------------|
G|-------0--------2------0------0-------0---2----------------------|
D|--------------------0---------0----------------------------------|
A|---3-------------------------------------------------------------|
E|----------------2-------------3----------------------------------|

e|------------------------------------0--------------------3------|
B|---0------------------------0--3---------------3------------3---|
G|-------------2--0--2-----------------------0---------0----------|
D|--------0---------------0---------------2----2------------------|
A|------------------------------------3----------2----------------|
E|---3---------------2--------------------------------------------|

e|---0------------------------------------------------------------|
B|----------3--0--------------------------3-----------------------|
G|-------0--------2------0------0---------2-----------------------|
D|--------------------0---------0---------------------------------|
A|---3------------------------------------------------------------|
E|----------------2-------------3---------2-----------------------|

e|---3----2-------0-----3------2-----------0----------------------|
B|---0-------3----0----------------3--------------3-----------3---|
G|---0------------0-------------------2----0------4-------4-------|
D|----------------2------------0------------------4---------------|
A|------------------------------------------------2---------------|
E|---0------------------------------------------------------------|

e|---0----------------------0----3---5-----3----------------------|
B|---1------3----0---3---------------------3----------------------|
G|---0---------------2---------------------4-------------0----2---|
D|-------------------0--------------------------------------------|
A|---3------------------------------------------------------------|
E|-------------------2---------------------3----------------------|

e|----------------------------------0---------------------3-------|
B|---0--------------------0----3----------------3------------3----|
G|----------2--0---2-----------------------0----------0-----------|
D|------0-------------0-----------------2----2--------------------|
A|----------------------------------3-----------2-----------------|
E|---3-------------2----------------------------------------------|

e|---0----------------------------------------------------3--5----|
B|----------3---0-------------------------------------------------|
G|------0------------2---------0-----0----------------------------|
D|-------------------------0---------0----------------------------|
A|---3------------------------------------------------------------|
E|-------------------2---------------3----------------------------|

e|---7----------------5------7---10-----12-----------------10---15-10---|
B|--------------------3------------------------------------8------------|
G|-----------4---5-------------------------------9----11----------------|
D|---5---7------------4-----------------10---12------------9------------|
A|----------------------------------------------------------------------|
E|----------------------------------------------------------------------|

e|---12----10---7---5---------3-----3-----------------------3---5-|
B|---------8--------3-------------------0----1--------0-----------|
G|---12------------------------------------------2----------------|
D|---10----9--------4----0----------------------------------------|
A|----------------------------------------------------------------|
E|----------------------------------3-----------------------------|

e|---7----------------5------7---10-----12-----------------10---15-10---|
B|--------------------3------------------------------------8------------|
G|-----------4---5-------------------------------9----11----------------|
D|---5---7------------4-----------------10---12------------9------------|
A|----------------------------------------------------------------------|
E|----------------------------------------------------------------------|

e|---12---10--7---5-------3---3----------------------------------|
B|--------8-------3---------------0---1-----0----3---------------|
G|---12----------------------------------2-------2---------------|
D|---10---9-------4---0------------------------------------------|
A|---------------------------------------------------------------|
E|----------------------------3------------------2---------------|

e|---3----2---------0----3------2-----------0--------------------|
B|---0--------3-----0---------------3------------3----------3----|
G|---0--------------0------------------2----0----4-----4---------|
D|------------------2-----------0----------------4---------------|
A|-----------------------------------------------2---------------|
E|---0-----------------------------------------------------------|

e|---0------------------0--3--5-----3----------------------------|
B|---1----3----0----3---------------3----------------------------|
G|---0--------------2---------------4------0---2-----------------|
D|------------------0--------------------------------------------|
A|---3-----------------------------------------------------------|
E|------------------2---------------3----------------------------|

e|----------------------------------------0--------------------3-------|
B|--0-----------------------------0--3-----------------3----------3----|
G|-------------2---0---2-------------------------0--------0------------|
D|------0------------------0-----------------2------2------------------|
A|----------------------------------------3------------2---------------|
E|--3------------------2-----------------------------------------------|

e|-0--------------------------------------------------------------|
B|----------3---0-------------------------------------------------|
G|-----0------------2----------0----0-----------------------------|
D|------------------------0---------0-----------------------------|
A|-3--------------------------------------------------------------|
E|------------------2---------------3-----------------------------|
Suggest correction
Give kudos to tab author, rate the tab!
1 2 3 4 5
comments
print report bad tab
guest
You may want to rate the tab now too:
select rating
Wanna post a correction for this tab? Suggest correction