Oops, an error
Loading. Please wait.

Aint No Sunshine Tab

version 5
version 5

Interactive

Video

  • A note for note transcription of exactly how Bill Withers played the song.
168,134 views 1,287 this week
no commentswrite comment
1 2 3 4 5
x 7
add to favorites
launch autoscroll
font size
0
reset
how to read this tab
guitar tuner
backing track
0:00
0:00
×
Best way to learn
"Aint No Sunshine"
Autoscroll
slow
fast
+/-
esc
set tempo
stop
Author
Difficulty
novice
Beautiful song, just pick it and strum the last part... any comments,
suggestions or even mistakes? Mail: maria.laura.goedecke@googlemail.com

Ain’t no sunshine – Bill Withers

Ain't no sunshine when she's gone
e|--------------------------------0--------------------0---------------|
B|--------------------------------1--------0---0-------1---------------|
G|------------------------------2---2------0---0-----2---2-------------|
D|---------------------------------------------------------------------|
A|---------------------------0---------------------0-------------------|
E|---------------------------------------0---3-------------------------|
It's not warm when she's away
e|-----------0--------------0-------------------------------------------|
B|-----------1--------------1---------0---0-----------------------------|
G|---------2---2----------2---2-------0---0-----------------------------|
D|----------------------------------------------------------------------|
A|-------0--------------0-----------------------------------------------|
E|----------------------------------0---3-------------------------------|
            Ain't No Sunshine When She's Gone
e|----------0------------0-------------------0--------------------------|
B|----------1------------1-------------------3--------------------------|
G|--------2---2--------2---2---------------0---0------------------------|
D|----------------------------------------------------------------------|
A|------0------------0--------------------------------------------------|
E|---------------------------------------0------------------------------|
And she's always gone too long anytime she goes away
e|----------0-----------------1-------1-------------0------------------|
B|----------1-----------------3-------3-------------1------------------|
G|--------0---0-------------2---2---2---2---------2---2---0----0-------|
D|-----------------------0--------0-----------------------0----0-------|
A|----------------------------------------------0----------------------|
E|------0------------------------------------------------0---3---------|

The same:
Wonder this time where she’s gone, wonder if she’s gone to stay
Ain’t no sunshine when she’s gone, and this house just ain’t no home 
Anytime she goes away

And I know I know I know I know...... I know
e|-------0------------------0-------------------------------------------|
B|-------1------------------1-------------------------------------------|
G|-----2---2--------------2---2-----------------------------------------|
D|----------------------------------------------------------------------|
A|--0--------------------0----------------------------------------------|
E|----------------------------------------------------------------------|
Hey I ought to leave the young thing alone
e|----------------0---------------------1------------------------------|
B|----------------1---------------------3------------------------------|
G|--------------2---2-----------------2---2----------------------------|
D|----------------------------------0----------------------------------|
A|------------0--------------------------------------------------------|
E|---------------------------------------------------------------------|
But ain't no sunshine when she's gone
e|---------------1-----------------0-----------------------------------|
B|---------------3-----------------1------0---0------------------------|
G|-------------2---2-------------2---2----0---0------------------------|
D|----------0----------------------------------------------------------|
A|-----------------------------0---------------------------------------|
E|--------------------------------------0---3--------------------------|

Am                                 G   Am                          G  Am 
Ain’t no sunshine when she’s gone         Only darkness every day   
                             Dm                           G
Ain’t no sunshine when she’s gone and this house ain’t no home
                 Am
Anytime she goes away

[Outro]
e|--------------------0-|
B|----0---0---------1---|
G|----0---0-------2-----|
D|--------------2-------|
A|------------0---------|
E|--0---3---------------|
Suggest correction
comments
print report bad tab
guest
You may want to rate the tab now too:
select rating
Wanna post a correction for this tab? Suggest correction