Oops, an error
Loading. Please wait.

Lean On Me Bass Tab

version 1
version 1

Interactive

1,400,765 views 45 this week
4 commentsread comments
1 2 3 4 5
accurate
x 20
add to favorites
launch autoscroll
font size
0
reset
guitar tuner
Tab Pro tools
  • play this tab
  • loop segment
  • change instrument
  • show fretboard
  • metronome
×
Best way to learn
"Lean On Me"
Autoscroll
slow
fast
+/-
esc
set tempo
stop
Lean on Me written by Bill Withers

Transcribed by Robert Pasley

Standard tuning (low to high; E,A,D,G)

G|--------0--1---1--0---------------0-0-----
D|1---1-3--------------3--1---1--3---------3
A|------------------------------------------
E|------------------------------------------

G|---------0-1---1-0-----------0----
D|1---1-3------------3-1---1-3-----1
A|-------------------------------1--
E|----------------------------------

If you have any Nine Inch Nails, please send it too me at
marilynmanson7@kornfreak.com Thanks

R.C.P.
comments
print report bad tab
4 comments total. Showing first comments.
0 reply
CrazyMonkey wrote on May 8 2002, 12:00 am

I think everything I print out is by Zappp. Thanx dude!

0 reply
icepaw1 wrote on December 30 2008, 07:47 pm

That was a little too high when i played it. Let's see if it's better like this:

G|------------------------------------------
D|--------0--1---1--0---------------0-0-----
A|1---1-3--------------3--1---1--3---------3
E|------------------------------------------

G|----------------------------------
D|---------0-1---1-0-----------0----
A|1---1-3------------3-1---1-3---3-1
E|----------------------------------

+1 reply
peter_doughton wrote on August 31 2009, 10:37 am

Icepaw1 is right its in the wrong place, but its on the C not the Bb, so its like

G---------------------------------------
D----------2-3---3-2------------2-2-----
A-3----3-5-----------5-3---3-5--------5-
E---------------------------------------

i.e. shift everything up a tone from icepaws correction

I want to post or [tab]
guest
You may want to rate the tab now too:
select rating
Please do not post tabs as comments. Select "correction" instead!