Oops, an error
Loading. Please wait.
We have an official Use Me tab made by UG professional guitarists. Check out the tab »
×
53,914 views 63 this week
2 commentsread comments
1 2 3 4 5
x 18
add to favorites
×
Save as Personal and add changes to this tab that will be seen only by you. Learn more ›
×
You can save this tab as Personal to edit and correct it or add notes. All changes will be seen only by you. Learn more »
launch autoscroll
font size
0
reset
guitar tuner
edit
Autoscroll
slow
fast
+/-
esc
set tempo
stop
Author
Difficulty
intermediate
Great Song- Play this tab throughout the whole song, but there are some breaks in the 
line when he is just singing by himself.

G|-----------------------------------------------|
D|-----------------------------------------------|
A|--5h7---5-6-7-5-6-7--7-5------------2-3-4-5----|
E|------0-------------------5-77-----------------|

The two 12s in there are hermonic notes. Then the other fill he plays is this.

G|---------------------------------12-12-----|
D|-------------------------------------------|
A|--5h7---5-6-7-5-6-7--7-5-------------------|
E|------0-------------------5-77-------------|

The two 12s at the end are hermonics.

Just listen to the groove and get the beat down.



************************************

| h  Hammer-on

************************************

            
            
Suggest correction
Creating personal tab
Creating personal tab
You can edit any tab online and save it as your Personal.

You can edit, replace or remove any tab part or add personal notes – all changes will be seen only by you.

Personal tabs can be accessed anytime from any device, even offline.
Learn more »
comments
print report bad tab
2 comments total.
+2 reply
Othersider 237 Sep 20, 2010 06:01 PM

To me, the recurring riff sounds more like this:

G|----------------------------------------|
D|----------------------------------------|
A|--5h7-7----5-6-7---5-6-7---5------------|
E|---------0-------------------7-6-5--5---|

(with slight variations on the fill after the pause)

I used an audio editing program to augment the bass and lower the rest of the song, and this is what I came up with.

0 reply
Mindspinster 10 Jun 11, 2017 08:01 PM

Othersider has it right, but thank you for this tab nick123

guest
You may want to rate the tab now too:
select rating
Wanna post a correction for this tab? Suggest correction