Oops, an error
Loading. Please wait.

Bird tab

1,456 views 12 this week
no commentswrite comment
1 2 3 4 5
2 more votes to show rating
add to favorites
×
Save as Personal and add changes to this tab that will be seen only by you. Learn more ›
×
You can save this tab as Personal to edit and correct it or add notes. All changes will be seen only by you. Learn more »
launch autoscroll
font size
0
reset
how to read this tab
guitar tuner
edit
Autoscroll
slow
fast
+/-
esc
set tempo
stop
Author
About this tab version
Basic chords for Billie Martens 'Bird'. I play with a capo on 1 but its closer to the original with no capo. Was this info helpful? Yes No
[Verse 1]

e|-2----------4-----6------2----------4---------6---|
B|-4----------6-----7------4----------6---------7---|
G|-4----------6-----8------4----------6---------8---|
D|-4----------6-----8------4----------6---------8---|
A|-2----------4-----6------2----------4---------6---|
E|-x----------x-----x------x----------x---------x---|
She’s underwater again, Somebody’s daughter, a friend

e|--------2------------2------------2----------4---------6---|
B|--------4------------2------------4----------6---------4---|
G|--------4------------3------------4----------6---------6---|
D|--------4------------4------------4----------6---------4---|
A|--------2------------4------------2----------4---------6---|
E|--------x------------x------------x----------x---------x---|
In the night in the dark in the cold, As she walks far away


[Chorus]

e|-----------2----------4-----6--------------2----------4-----6---|
B|-----------4----------6-----7--------------4----------6-----4---|
G|-----------4----------6-----8--------------4----------6-----6---|
D|-----------4----------6-----8--------------4----------6-----4---|
A|-----------2----------4-----6--------------2----------4-----6---|
E|-----------x----------x-----x--------------x----------x-----x---|
Nobody’s watching                Drowning in words so sweet


e|-----------2----------4-----6--------------2----------4-----6---|
B|-----------4----------6-----7--------------4----------6-----7---|
G|-----------4----------6-----8--------------4----------6-----6---|
D|-----------4----------6-----8--------------4----------6-----8---|
A|-----------2----------4-----6--------------2----------4-----6---|
E|-----------x----------x-----x--------------x----------x-----x---|
Mild is the water                 Caught as a bird once free


[Post-Chorus]

e|-----------2----------4-----6---|
B|-----------4----------6-----7---|
G|-----------4----------6-----8---|
D|-----------4----------6-----8---|
A|-----------2----------4-----6---|
E|-----------x----------x-----x---|
I don’t mind


[Verse 2]

e|-2----------4-----6------2----------4---------6---|
B|-4----------6-----7------4----------6---------7---|
G|-4----------6-----8------4----------6---------8---|
D|-4----------6-----8------4----------6---------8---|
A|-2----------4-----6------2----------4---------6---|
E|-x----------x-----x------x----------x---------x---|
Hope is a distance un-reached, Ink on her skin incomplete


e|--------2---------------2---------------2------------4-----------6---|
B|--------4---------------2---------------4------------6-----------4---|
G|--------4---------------3---------------4------------6-----------6---|
D|--------4---------------4---------------4------------6-----------4---|
A|--------2---------------4---------------2------------4-----------6---|
E|--------x---------------x---------------x------------x-----------x---|
And the faint sound of friends, as she neared to the end she had peace


[Chorus]

e|-----------2----------4-----6--------------2----------4-----6---|
B|-----------4----------6-----7--------------4----------6-----4---|
G|-----------4----------6-----8--------------4----------6-----6---|
D|-----------4----------6-----8--------------4----------6-----4---|
A|-----------2----------4-----6--------------2----------4-----6---|
E|-----------x----------x-----x--------------x----------x-----x---|
Nobody’s watching                Drowning in words so sweet


e|-----------2----------4-----6--------------2----------4-----6---|
B|-----------4----------6-----7--------------4----------6-----7---|
G|-----------4----------6-----8--------------4----------6-----6---|
D|-----------4----------6-----8--------------4----------6-----8---|
A|-----------2----------4-----6--------------2----------4-----6---|
E|-----------x----------x-----x--------------x----------x-----x---|
Mild is the water                 Caught as a bird once free


[Post-Chorus]

e|-----------2----------4-----6---|
B|-----------4----------6-----7---|
G|-----------4----------6-----8---|
D|-----------4----------6-----8---|
A|-----------2----------4-----6---|
E|-----------x----------x-----x---|
I don’t mind x2


[Bridge]

e|-6------------2------------2---------|
B|-7------------4------------2---------|
G|-8------------4------------3---------|
D|-8------------4------------4---------|
A|-6------------2------------4---------|
E|-x------------x------------x---------|
Where does a star go from here

e|-6------------2------|
B|-7------------4------|
G|-8------------4------|
D|-8------------4------|
A|-6------------2------|
E|-x------------x------|
Lost in the grip


[Chorus]

e|-----------2----------4-----6--------------2----------4-----6---|
B|-----------4----------6-----7--------------4----------6-----4---|
G|-----------4----------6-----8--------------4----------6-----6---|
D|-----------4----------6-----8--------------4----------6-----4---|
A|-----------2----------4-----6--------------2----------4-----6---|
E|-----------x----------x-----x--------------x----------x-----x---|
Nobody’s watching                Drowning in words so sweet


e|-----------2----------4-----6--------------2----------4-----6---|
B|-----------4----------6-----7--------------4----------6-----7---|
G|-----------4----------6-----8--------------4----------6-----6---|
D|-----------4----------6-----8--------------4----------6-----8---|
A|-----------2----------4-----6--------------2----------4-----6---|
E|-----------x----------x-----x--------------x----------x-----x---|
Mild is the water                 Caught as a bird once free

e|-----------2----------4-----6--------------2----------4-----6---|
B|-----------4----------6-----7--------------4----------6-----4---|
G|-----------4----------6-----8--------------4----------6-----6---|
D|-----------4----------6-----8--------------4----------6-----4---|
A|-----------2----------4-----6--------------2----------4-----6---|
E|-----------x----------x-----x--------------x----------x-----x---|
Nobody’s watching                Drowning in words so sweet


e|-----------2----------4-----6--------------2----------4-----6---|
B|-----------4----------6-----7--------------4----------6-----7---|
G|-----------4----------6-----8--------------4----------6-----6---|
D|-----------4----------6-----8--------------4----------6-----8---|
A|-----------2----------4-----6--------------2----------4-----6---|
E|-----------x----------x-----x--------------x----------x-----x---|
Mild is the water                 Caught as a bird once free


[Post-Chorus]

e|-----------2----------4-----6---|
B|-----------4----------6-----7---|
G|-----------4----------6-----8---|
D|-----------4----------6-----8---|
A|-----------2----------4-----6---|
E|-----------x----------x-----x---|
I don’t mind x4



************************************

| x  Dead note

************************************

            
            
Suggest correction
Creating personal tab
Creating personal tab
You can edit any tab online and save it as your Personal.

You can edit, replace or remove any tab part or add personal notes – all changes will be seen only by you.

Personal tabs can be accessed anytime from any device, even offline.
Learn more »
Give kudos to tab author, rate the tab!
1 2 3 4 5
comments
print report bad tab
guest
You may want to rate the tab now too:
select rating
Wanna post a correction for this tab? Suggest correction