Oops, an error
Loading. Please wait.

Kiss The Rain Bass Tab

version 2
version 2

Whole song

Interactive

826 views 1 this week
no commentswrite comment
1 2 3 4 5
please rate
add to favorites
launch autoscroll
font size
0
reset
guitar tuner
Tab Pro tools
  • play this tab
  • loop segment
  • change instrument
  • show fretboard
  • metronome
×
Best way to learn
"Kiss The Rain"
Autoscroll
slow
fast
+/-
esc
set tempo
stop
Contributor
Difficulty
novice
-------------------------------------------------------------------------------
			     KISS THE RAIN - Billie Myers
-------------------------------------------------------------------------------
Tabbed by: metallhead
Email: homesticky@gmail.com

Tuning: E A D G


Gtr I (E A D G) - 'Bass'

  Q=88
 4/4
  Gtr I
  H    +H       H    +Q   Q    H    +H       H    +Q   Q
|-------------|--------------|-------------|---------------|
|-------------|--------------|-------------|-0----(0)--0---|
|-0----(0)----|--------------|-------------|---------------|
|-------------|-0----(0)--0--|-2----(2)----|---------------|


  H    +H       H    +Q   Q    H    +Q   Q    H    +H
|-------------|--------------|--------------|-------------|
|-------------|--------------|--------------|-0----(0)----|
|-0----(0)----|--------------|--------------|-------------|
|-------------|-0----(0)--0--|-2----(2)--2--|-------------|


  H    +H       H    +Q   Q    H    +H       H    +Q   Q
|-------------|--------------|-------------|--------------|
|-------------|--------------|-------------|-0----(0)--0--|
|-0----(0)----|--------------|-------------|--------------|
|-------------|-0----(0)--0--|-2----(2)----|--------------|


  H    +H       H    +Q   Q    H    +H       H    +Q   Q
|-------------|--------------|-------------|--------------|
|-------------|--------------|-------------|-0----(0)--0--|
|-0----(0)----|--------------|-------------|--------------|
|-------------|-0----(0)--0--|-2----(2)----|--------------|


  H    +H       H    +H       H    +H       H    +H
|-------------|-------------|-------------|-------------|
|-------------|-------------|-------------|-------------|
|-------------|-------------|-------------|-------------|
|-0----(0)----|-2----(2)----|-0----(0)----|-2----(2)----|


  H    +H       W          H    +H       H    +H
|-------------|----------|-------------|-------------|
|-------------|----------|-------------|-------------|
|-------------|----------|-0----(0)----|-4----(4)----|
|-0----(0)----|----------|-------------|-------------|


  H    +H       H    Q  E S S   H    +H       H    +H
|-------------|---------------|-------------|-------------|
|-------------|---------------|-------------|-------------|
|-5----(5)----|---------------|-------------|-4----(4)----|
|-------------|-0----0--0-2-4-|-5----(5)----|-------------|


  H    +H       H    +Q   Q    H    +H       H    +H
|-------------|--------------|-------------|-------------|
|-------------|--------------|-------------|-------------|
|-5----(5)----|--------------|-------------|-4----(4)----|
|-------------|-0----(0)--0--|-5----(5)----|-------------|


  H    +H       Q.   E +H       H    +H       H    +H
|-------------|---------------|-------------|-------------|
|-------------|---------------|-------------|-------------|
|-5----(5)----|---------------|-0----(0)----|-4----(4)----|
|-------------|-2----0-(0)----|-------------|-------------|


  H    +H       H    +H       H    +Q   Q    H    +H
|-------------|-------------|--------------|-------------|
|-------------|-------------|--------------|-------------|
|-5----(5)----|-5----(5)----|--------------|-------------|
|-------------|-------------|-5----(5)--5--|-0----(0)----|


  H    +Q   Q    W          H    +H       H    +Q   Q
|--------------|----------|-------------|--------------|
|--------------|----------|-------------|--------------|
|-----------0--|----------|-0----(0)----|--------------|
|-2----(2)-----|----------|-------------|-0----(0)--0--|


  H    +H       H    +Q   Q    H    +H       H    +Q   Q
|-------------|--------------|-------------|--------------|
|-------------|-0----(0)--0--|-------------|--------------|
|-------------|--------------|-0----(0)----|--------------|
|-2----(2)----|--------------|-------------|-0----(0)--0--|


  H    +H       H    +Q   Q    H    +H       H    +H
|-------------|--------------|-------------|-------------|
|-------------|-0----(0)--0--|-------------|-------------|
|-------------|--------------|-------------|-------------|
|-2----(2)----|--------------|-0----(0)----|-2----(2)----|


  H    +H       H    +H       H    +H       H    +H
|-------------|-------------|-------------|-------------|
|-------------|-------------|-------------|-0----(0)----|
|-------------|-------------|-------------|-------------|
|-4----(4)----|-2----(2)----|-0----(0)----|-------------|


  H    +H       H    +Q   Q    H    +H       H    +Q   Q
|-------------|--------------|-------------|--------------|
|-------------|--------------|-------------|-0----(0)--0--|
|-0----(0)----|--------------|-------------|--------------|
|-------------|-0----(0)--0--|-2----(2)----|--------------|


  H    +H       H    +Q   Q    H    +Q   Q    H    +H
|-------------|--------------|--------------|-------------|
|-------------|--------------|--------------|-0----(0)----|
|-0----(0)----|--------------|--------------|-------------|
|-------------|-0----(0)--0--|-2----(2)--2--|-------------|


  S S S S S S S S S S S S S S S S   H    +H       H    +Q   Q
|---------------------------------|-------------|---------------|
|-0-0-0-0-0-0-0-0-0-0-0-0-0-0-0-0-|-------------|---------------|
|---------------------------------|-0----(0)----|-4----(4)--4---|
|---------------------------------|-------------|---------------|


  H    +H       H    E S S S S S S   H    +Q   Q    H    +H
|-------------|--------------------|--------------|-------------|
|-------------|--------------------|--------------|-------------|
|-5----(5)----|--------------2-0---|-0----(0)--0--|-4----(4)----|
|-------------|-0------0-2-4-----0-|--------------|-------------|


  H    +Q   Q    H    E S S S S S S   H    +H       H    +H
|--------------|--------------------|-------------|-------------|
|--------------|--------------------|-------------|-------------|
|-5----(5)--5--|--------------2-0---|-0----(0)----|-4----(4)----|
|--------------|-0------0-2-4-----0-|-------------|-------------|


  H    +H        Q.    E  +S   S  S  S  S  S  S S
|-------------|-11----13-(13)-13------------------|
|-------------|------------------14----14---------|
|-5----(5)----|---------------------16----14------|
|-------------|------------------------------14-2-|


  H    +Q.   S S   H    +H
|----------------|-------------|
|----------------|-------------|
|-0----(0)---0-2-|-4----(4)----|
|----------------|-------------|


  Q.   E +Q   Q    +E  E +Q   Q  Q    H    +H       H    +Q   Q
|----------------|------------------|-------------|--------------|
|----------------|------------------|-------------|--------------|
|-5----5-(5)--5--|-(5)-5-(5)--5--5--|-------------|--------------|
|----------------|------------------|-5----(5)----|-0----(0)--0--|


  H    +H       H    +Q   Q    H    +Q   Q    H    +H
|-------------|--------------|--------------|-------------|
|-------------|-0----(0)--0--|--------------|-------------|
|-------------|--------------|-0----(0)--0--|-------------|
|-2----(2)----|--------------|--------------|-0----(0)----|


  H    +Q   Q    H    +Q   Q    H    +H       H    +Q   Q
|--------------|--------------|-------------|--------------|
|--------------|-0----(0)--0--|-------------|--------------|
|--------------|--------------|-0----(0)----|--------------|
|-2----(2)--2--|--------------|-------------|-0----(0)--0--|


  H    +H       H    +Q   Q    H    +H       H    +Q   Q
|-------------|--------------|-------------|--------------|
|-------------|-0----(0)--0--|-------------|--------------|
|-------------|--------------|-0----(0)----|--------------|
|-2----(2)----|--------------|-------------|-0----(0)--0--|


  H    +H       H    +Q   Q    H    +H
|-------------|--------------|-------------*|
|-------------|-0----(0)--0--|-------------*|
|-------------|--------------|-0----(0)----*|
|-2----(2)----|--------------|-------------*|


Duration Legend
---------------
W - whole; H - half; Q - quarter; E - 8th; S - 16th; T - 32nd; X - 64th; a - acciaccatura
+ - note tied to previous; . - note dotted; .. - note double dotted
Uncapitalized letters represent notes that are staccato (1/2 duration)
Irregular groupings are notated above the duration line
Duration letters will always appear directly above the note/fret number it represents the
duration for.  Duration letters with no fret number below them represent rests.  Multi-
bar rests are notated in the form Wxn, where n is the number of bars to rest for.  Low
melody durations appear below the staff

Tablature Legend
----------------
 h   - hammer-on
 p   - pull-off
 b   - bend
 pb  - pre-bend
 r   - bend release (if no number after the r, then release immediately)
 /\  - slide into or out of (from/to "nowhere")
 s   - legato slide
 S   - shift slide
  - natural harmonic
[n]  - artificial harmonic
n(n) - tapped harmonic
 ~   - vibrato
 tr  - trill
 T   - tap
 TP  - trem. picking
 PM  - palm muting
\n/  - tremolo bar dip; n = amount to dip
 \n  - tremolo bar down
 n/  - tremolo bar up
/n\  - tremolo bar inverted dip
 =   - hold bend; also acts as connecting device for hammers/pulls
 <>  - volume swell (louder/softer)
 x   - on rhythm slash represents muted slash
 o   - on rhythm slash represents single note slash

Misc Legend
-----------
 |  - bar
||  - double bar
||o - repeat start
o|| - repeat end
*|  - double bar (ending)
 :  - bar (freetime)
 $  - Segno
 &  - Coda
comments
We did not receive enough feedback on this tab! Please rate:
print report bad tab
1 2 3 4 5
I want to post or [tab]
guest
You may want to rate the tab now too:
select rating
Please do not post tabs as comments. Select "correction" instead!