Oops, an error
Loading. Please wait.

Rock N Roll Radio Tab

355 views 1 this week
no commentswrite comment
1 2 3 4 5
3 more votes to show rating
add to favorites
launch autoscroll
font size
0
reset
how to read this tab
guitar tuner
Autoscroll
slow
fast
+/-
esc
set tempo
stop
Help us to improve Ultimate-Guitar.com Take our survey!
×
Song: Rock 'n' Roll Radio
Band: The Billion Dollar Babies
Album: Battle Axe
Year: 1977
Tabbed by DoteStudios
Email is manbearpigisreal@gmail.com

Keys
b = bend
r = release
\ = slide up neck 
/ = slide down neck
h = hammer-on
p = pull-off
~ = hold note
w = whammy bar
v = vibrato

Rhythm Guitar (Michael Bruce)
E-------------------------------------------|
B-------------------------------------------|
G-------------------------------------------|
D-7~~7--5--9~~9--10-9-7~~7--5--9~~9--9-10-9-|
A-7~~7--5--9~~9--10-9-7~~7--5--9~~9--9-10-9-|
E-5~~5--3--7~~7---8-7-5~~5--3--7~~7--7--8-7-|

“It’s my favorite song, on my favorite station
They play it all day long
It’s the number record all over the nation
It’s bigger than King Kong”
E-------------------------------------------|
B-------------------------------------------|
G-------------------------------------------| 2x
D-7~~7--5--9~~9--10-9-7~~7--5--9~~9--9-10-9-|
A-7~~7--5--9~~9--10-9-7~~7--5--9~~9--9-10-9-|
E-5~~5--3--7~~7---8-7-5~~5--3--7~~7--7--8-7-|

“Between class and after school
In my car or when I’m shootin’ some pool
My favorite station comin’ loud and clear
They play the music that we love to hear”
E------------------------------------------------------|
B------------------------------------------------------|
G------4-5--9--5--7------------------------------------| 2x
D-5-7--4-5--9--5--7------7-7-7-7-7-7-7-7---------------|
A-5-7--2-3--7--3--5------7-7-7-7-7-7-7-7----6----------|
E-3-5-----------------5--5-5-5-5-5-5-5-5-/7---7-0--0-0-|

“Rock, rock, rock n’ roll radio”
Lead Guitar (Mike Marconi)
E-------------------12----------------------|
B-------------12b14----12p10----10-12-------|
G----------------------------11-------11~~\-|
D-------------------------------------------|
A-------------------------------------------|
E-------------------------------------------|

Rhythm Guitar
E-------------------------------------------|
B-------------------------------------------|
G-7~~----9~~--------------------------------|
D-7~~----9~~--------------------------------|
A-5~~----7~~--------------------------------|
E-------------------------------------------|

“Turn it up, it’s my favorite show”

“Rock, rock, rock n’ roll radio”
Lead Guitar
E------------------------------------------|
B--------------------------------8b10~~----|
G-------------------9----------------------|
D--------------9b11---9p7---7-9------------|
A-------------------------9----------------|
E------------------------------------------|

Rhythm Guitar
E------------------------------------------|
B--------------------------------8b10~~----|
G-7~~----9~~-------------------------------|
D-7~~----9~~-------------------------------|
A-5~~----7~~-------------------------------|
E------------------------------------------|

“From Detroit down to New Orleans
New York City to the L.A. scenes”
E-------------------------------|
B-------------------------------|
G-------------------------------| 2x
D-0~~---0-2~~-------------------|
A-------------0-2-0----------2--|
E-------------------2~~--2-0----|

“And the voids in between”
E---------------|
B---------------|
G----------1-2--|
D-0-0-2--2------|
A---------------|
E---------------|

“Listen to the airway sing
That song has everything”
E------------------------------------------------------|
B------------------------------------------------------|
G------4-5--9--5--7------------------------------------|
D-5-7--4-5--9--5--7------7-7-7-7-7-7-7-7---------------|
A-5-7--2-3--7--3--5------7-7-7-7-7-7-7-7----6----------|
E-3-5-----------------5--5-5-5-5-5-5-5-5-/7---7-0--0-0-|

“Screaming guitars make me lose control
I can’t stop listenin’ to that rock n’ roll
Lead Guitar
E------12-----------------------------------------------|
B------15b17~~~-----------------------------------------|
G-------------------------------------------------------|
D-------------------------------------------------------|
A-------------------------------------------------------|
E-------------------------------------------------------|

Rhythm Guitar
E------------------------------------------------------|
B------------------------------------------------------|
G------4-5--9--5--7------------------------------------|
D-5-7--4-5--9--5--7------7-7-7-7-7-7-7-7---------------|
A-5-7--2-3--7--3--5------7-7-7-7-7-7-7-7----6----------|
E-3-5-----------------5--5-5-5-5-5-5-5-5-/7---7-0--0-0-|

“Yeah!
It’s my favorite song, on my favorite station
They play it all day long”
E-------------------------------------------|
B-------------------------------------------|
G-------------------------------------------|
D-7~~7--5--9~~9--10-9-7~~7--5--9~~9--9-10-9-|
A-7~~7--5--9~~9--10-9-7~~7--5--9~~9--9-10-9-|
E-5~~5--3--7~~7---8-7-5~~5--3--7~~7--7--8-7-|

“It’s the number record all over the nation
It’s bigger than King Kong”
E--------------------------------------------|
B--------------------------------------------|
G--------------------------------------------|
D-7~~7--5--9~~9--10-9-7~~7--5--9~~-----------|
A-7~~7--5--9~~9--10-9-7~~7--5--9~~-------0-2-|
E-5~~5--3--7~~7---8-7-5~~5--3--7~~---0-2-----|

“Rock, rock, rock n’ roll radio”
Lead Guitar
E-------------------12----------------------|
B-------------12b14----12p10----10-12-------|
G----------------------------11-------11~~\-|
D-------------------------------------------|
A-------------------------------------------|
E-------------------------------------------|

Rhythm Guitar
E-------------------------------------------|
B-------------------------------------------|
G-7~~----9~~--------------------------------|
D-7~~----9~~--------------------------------|
A-5~~----7~~--------------------------------|
E-------------------------------------------|

“Turn it up, it’s my favorite show”
E-------------------------------|
B-------------------------------|
G-------------------------------|
D-0~~---0-2~~-------------------|
A-------------0-2-0----------2--|
E-------------------2~~--2-0----|

“Rock, rock, rock n’ roll radio”
Lead Guitar
E------------------------------------------|
B--------------------------------8b10~~----|
G-------------------9----------------------|
D--------------9b11---9p7---7-9------------|
A-------------------------9----------------|
E------------------------------------------|

Rhythm Guitar
E------------------------------------------|
B--------------------------------8b10~~----|
G-7~~----9~~-------------------------------|
D-7~~----9~~-------------------------------|
A-5~~----7~~-------------------------------|
E------------------------------------------|

“From Detroit down to New Orleans
New York City to the L.A. scene
Canada, Mexico, and overseas
Turn it up, just a bit if you please
Turn it up, just a little bit louder
Turn it up, just a little bit louder
Turn it up, just a little bit louder
Turn it up, just a little bit louder”
E-------------------------------|
B-------------------------------|
G-------------------------------| 8x
D-0~~---0-2~~-------------------|
A-------------0-2-0----------2--|
E-------------------2~~--2-0----|

http://www.artistdirect.com/nad/music/artist/card/0,,404326,00.html
Suggest correction
Give kudos to tab author, rate the tab!
1 2 3 4 5
comments
print report bad tab
guest
You may want to rate the tab now too:
select rating
Wanna post a correction for this tab? Suggest correction