Oops, an error
Loading. Please wait.

California Stars chords

version 3
version 3

Whole song

1,292 views 9 this week
no commentswrite comment
1 2 3 4 5
x 5
add to favorites
×
Save as Personal and add changes to this tab that will be seen only by you. Learn more ›
×
You can save this tab as Personal to edit and correct it or add notes. All changes will be seen only by you. Learn more »
launch autoscroll
font size
0
reset
transpose
0
reset
display chords
guitar tuner
edit
Autoscroll
slow
fast
+/-
esc
set tempo
stop
Strumming
There is no strumming pattern for this song yet. and get +5 IQ
-------------------------------------------------------------------------------
                    CALIFORNIA STARS - Wilco
-------------------------------------------------------------------------------
Tabbed by: jvwald

This tab is based on this YouTube video:
https://www.youtube.com/watch?v=X3SO7yo6GQs

If you find this tab helpful, check out the other Wilco/Tweedy tabs I've posted.

Capo II

G 320033
D x00232
C x32010

intro
e|--3-3-3-3-3-3-3-3-2-2-2-2-0-0-2-0-0-0-0-0-0-0-0-0-0-3-3-3-3-3-3-3-3--|
B|--3-3-3-3-3-3-3-3-3-3-3-3-1-0-3-0-0-1-1-1-1-1-1-1-1-3-3-3-3-3-3-3-3--|
G|--0-0-0-0-0-0-0-0-2-2-2-4-2-2-2-0-0-0-0-0-2-4-2-0-0-0-0-0-0-0-0-0-0--|
D|--0-0-0-0-0-0-0-0-0-0-0-0-0-0-0-0-0-2-2-2-0-0-0-0-2-0-0-0-0-0-0-0-0--|
A|--2-2-2-0-2-2-2-0-0-0-0-0-0-0-0-0-0-3-3-3-3-3-3-3-3-2-2-2-0-2-2-2-0--|
E|--3-3-3-3-3-3-3-3-----------------------------------3-3-3-3-3-3-3-3--|

             G
I'd like to rest my heavy head tonight
      D
On a bed of California stars
             C
I'd like to lay my weary bones tonight
      G
On a bed of California stars
             G
I'd love to feel your hand touching mine
              D
And tell me why I must keep working on
          C
Yes, i'd give my life to lay my head tonight
      G
On a bed of California stars

intro

              G
I'd like to dream my troubles are away
      D
On a bed of Califrnia stars
C
Jump up from a starbed and make another day
      G
Underneath my California stars
                 G
They hang like grapes on vines that shine
              D
And warm the lovers glass like friendly wine
         C
So, I'd give this world just to dream a dream with you
        G
On our bed of California stars

intro

             G
I'd like to rest my heavy head tonight
      D
On a bed of California stars
             C
I'd like to lay my weary bones tonight
      G
On a bed of California stars
             G
I'd love to feel your hand touching mine
              D
And tell me why I must keep working on
          C
Yes, i'd give my life to lay my head tonight
      G
On a bed of California stars

intro

              G
I'd like to dream my troubles are away
      D
On a bed of Califrnia stars
C
Jump up from a starbed and make another day
      G
Underneath my California stars
                 G
They hang like grapes on vines that shine
              D
And warm the lovers glass like friendly wine
         C
So, I'd give this world just to dream a dream with you
        G
On our bed of California stars

intro

intro
Til I give this world just a dream a dream with you on our bed of California stars

intro
...dream a dream with you

intro (end with riff 1)

riff 1
e|--------------------3--|
B|--------------------3--|
G|--------------------0--|
D|------0-----0-----0-0--|
A|--0h2---0h2---0h2---2--|
E|--------------------3--|

outro
e|----------------------2-2-2-------------0-0---------------3--|
B|----------------------3-3-3-1-0---------1-1-1-1-1-1-------3--|
G|--0-0-2-4-2-0-0-----0-2-2-4-2-2-2-----0-0-0-2-4-2-0-----0-0--|
D|--0-0-0-0-0-0---0h2---0-0---0-0---0h2---2-2---------0h2---0--|
A|--x-x-----------------0-0---------------3-3---------------2--|
E|--3-3-----------------------------------------------------3--|

************************************

| /   slide up
| \   slide down
| h   hammer-on
| p   pull-off
| ~   vibrato
| +   harmonic
| x   Mute note
| b   Bend
| pb  Pre-bend
| br  Bend release
| pbr Pre-bend release
| brb Bend release bend

************************************

            
            
Suggest correction
Creating personal tab
Creating personal tab
You can edit any tab online and save it as your Personal.

You can edit, replace or remove any tab part or add personal notes – all changes will be seen only by you.

Personal tabs can be accessed anytime from any device, even offline.
Learn more »
comments
print report bad tab
guest
You may want to rate the tab now too:
select rating
Wanna post a correction for this tab? Suggest correction