Oops, an error
Loading. Please wait.

Quadrant 4 Bass Tab

31 views 3 this week
no commentswrite comment
1 2 3 4 5
3 more votes to show rating
add to favorites
launch autoscroll
font size
0
reset
guitar tuner
Autoscroll
slow
fast
+/-
esc
set tempo
stop
Help us to improve Ultimate-Guitar.com Take our survey!
×
Author
Quadrant 4 - Billy Cobham
Bass
Fast (265)


[Intro - Drums & Synth  0:00]

[Vamp - + Bass  1:08]

[Verse 1  1:12]

     Ab7              
G|---------------|------------|-------------|-------------|
D|---------------|------------|-------------|-------------|
A|------3--4--5--|-6--5--4--3-|----3--4--5--|-6--5--4--3--|
E|---4-----------|------------|-4-----------|-------------|

     Db7                        Ab7
G|---------------|------------|-------------|-------------|
D|------3--4--5--|-6--5--4--3-|-------------|-------------|
A|---4-----------|------------|----3--4--5--|-6--5--4--3--|
E|---------------|------------|-4-----------|-------------|

     Bbm7          Eb7          Ab7
G|---------------|------------|-------------|-------------||
D|---------------|------------|-------------|-------------||
A|------3--4--5--|-6--4--3----|----3--4--6--|-------------||
E|---6-----------|--------- 6-|-4-----------|-4--1--2--3--||


[Verse 2  1:23]

     Ab7              
G|---------------|------------|-------------|-------------|
D|---------------|------------|-------------|-------------|
A|------3--4--5--|-6--5--4--3-|----3--4--5--|-6--5--4--3--|
E|---4-----------|------------|-4-----------|-------------|

     Db7                        Ab7
G|---------------|------------|-------------|-------------|
D|------3--4--5--|-6--5--4--3-|-------------|-------------|
A|---4-----------|------------|----3--4--5--|-6--5--4--3--|
E|---------------|------------|-4-----------|-------------|

     Bbm7          Eb7          Ab7
G|---------------|------------|-------------|-------------||
D|---------------|------------|-------------|-------------||
A|------3--4--5--|-6--4--3----|----3--4--6--|-------------||
E|---6-----------|--------- 6-|-4-----------|-4--1--2--3--||


[Bridge  1:37]

       Db7            Cb7        
G|--------------|--------------||
D|--------------|--------------||
A|--4--4--4--4--|--2--2--2--2--||
E|--------------|--------------||



[Guitar Solo  1:43]

       Db7            Cb7        
G|--------------|--------------||
D|--------------|--------------||
A|--4-----4--3--|--2-----2--3--||
E|-----4--------|-----2--------||


[Verse 3  3:44]

     Ab7              
G|---------------|------------|-------------|-------------|
D|---------------|------------|-------------|-------------|
A|---4--4--4--4--|-4--4--4--4-|-4--4--4--4--|-4--4--4--4--|
E|---------------|------------|-------------|-------------|

     Db7                        Ab7
G|---------------|------------|-------------|-------------|
D|---4--4--4--4--|-4--4--4--4-|-------------|-------------|
A|---------------|------------|-4--4--4--4--|-4--4--4--4--|
E|---------------|------------|-------------|-------------|

     Bbm7          Eb7          Ab7
G|---------------|------------|-------------|-------------||
D|---------------|------------|-------------|---4--5--6---||
A|------3--4--5--|-6--4--3----|----3--4--5--|-6-----------||
E|---6-----------|--------- 6-|-4-----------|-------------||


[Verse 2  3:56]

     Ab7              
G|---------------|------------|-------------|-------------|
D|---------------|------------|-------------|-------------|
A|---4--4--4--4--|-4--4--4--4-|-4--4--4--4--|-4--4--4--4--|
E|---------------|------------|-------------|-------------|

     Db7                        Ab7
G|---------------|------------|-------------|-------------|
D|---4--4--4--4--|-4--4--4--4-|-------------|-------------|
A|---------------|------------|-4--4--4--4--|-4--4--4--4--|
E|---------------|------------|-------------|-------------|

     Bbm7          Eb7          Ab7
G|---------------|------------|-------------|-------------||
D|---------------|------------|-------------|-------------||
A|------3--4--5--|-6--4--3----|----3--4--6--|-------------||
E|---6-----------|--------- 6-|-4-----------|-4--1--2--3--||


[Bridge  4:07]
       Db7            Cb7        
G|--------------|--------------|
D|--------------|--------------|
A|--4--4--4--4--|--2--2--2--2--|
E|--------------|--------------|

[Ending   4:13]
     Ab7              
G|------------------------------------------------------------|
D|---6-----4--5-----6-----4--5-----6-----4--5-----6-----4--5--|
A|------6--------------6--------------6--------------6--------|
E|------------------------------------------------------------|
Suggest correction
Give kudos to tab author, rate the tab!
1 2 3 4 5
comments
print report bad tab
guest
You may want to rate the tab now too:
select rating
Wanna post a correction for this tab? Suggest correction