Oops, an error
Loading. Please wait.

Red Baron Tab

version 1
version 1

Intro

Whole song

Interactive

15,892 views 39 this week
no commentswrite comment
1 2 3 4 5
x 4
add to favorites
launch autoscroll
font size
0
reset
how to read this tab
guitar tuner
backing track
0:00
0:00
×
Best way to learn
"Red Baron"
Autoscroll
slow
fast
+/-
esc
set tempo
stop
Author
Red Baron
Billy Cobham
Tab by Almir Nametak(mokra@freenetname.co.uk)


G7  C9  

E---3-------------------3---------------------------3------------|
B----------------------------------23---23---23------------------|
G--------------3-2-23----------------32---32---32----------------|
D----5--3/5555----5--5---5--3/5555-----5----5--------5-----------|
A----------------------------------------------------------------|
E----------------------------------------------------------------|


E-------------------------------3--------------------------------|
B------------------------------3-3-------------------------------|
G-----------3-2--23------3--56-----3-32----32--2---------2—-2/1--|
D----3/5555----5---5---5----------5-----5----5---5-3-3-5---------|
A-----------------------------------------4---------5------------|
E----------------------------------------------------------------|
Suggest correction
comments
print report bad tab
guest
You may want to rate the tab now too:
select rating
Wanna post a correction for this tab? Suggest correction