Oops, an error
Loading. Please wait.

Dancing With Myself tab

version 2
version 2

Whole song

Interactive

12,834 views 1 this week
5 commentsread comments
1 2 3 4 5
x 6
add to favorites
×
Save as Personal and add changes to this tab that will be seen only by you. Learn more ›
×
You can save this tab as Personal to edit and correct it or add notes. All changes will be seen only by you. Learn more »
launch autoscroll
font size
0
reset
how to read this tab
guitar tuner
backing track
0:00
0:00
edit
Autoscroll
slow
fast
+/-
esc
set tempo
stop
Author
This is how i will presume Billy Idol plays it, it sounds perfect to me, Worked a
lot with it, for corrections e-mail OMAR_doggie@hotmail.com !



   verse 1 and intro

     guitar 1  (x12)
   e|--------------------|
   B|--------------------|
   G|--999-9-9-8-9-11-9--|
   D|--------------------|
   A|--------------------|
   E|--------------------|



    Chorus
                guitar 2                                          
   e|------------------------------| It's many ways
   B|------------------------------| you can play
   G|--99999-----------------------| this chorus.          
   D|--99999--77777--99999--77777--| Our band usually
   A|--77777--77777--99999--77777--| Just mute this part
   E|---------55555--77777--55555--| a bit
      
      guitar 1     Guitar 2
   e|----------|--------------|This is how 
   B|----------|--------------|Chorus ends
   G|--999999--|--9----Let----|on both guitars
   D|----------|--9----This---|
   A|----------|--7----Ring!--|
   E|----------|--------------|


   Verse 2

     guitar 1  (x8)  
   e|--------------------|
   B|--------------------|
   G|--999-9-9-8-9-11-9--|
   D|--------------------|
   A|--------------------|
   E|--------------------|


    Chorus
                guitar 2                                          
   e|------------------------------| It's many ways
   B|------------------------------| you can play
   G|--99999-----------------------| this chorus.          
   D|--99999--77777--99999--77777--| Our band usually
   A|--77777--77777--99999--77777--| Just mute this part
   E|---------55555--77777--55555--| a bit
      
      guitar 2
   e|-----------------------------|
   B|-----------------------------|
   G|--9--------------------------|
   D|--9-----7-----2-----9--999999|
   A|--7-----7-----2-----9--999999|
   E|--------5-----0-----7--777777|


    Solo

      Guitar 1   (x6)
   e|-----------------------|---------------------------------|
   B|-----------------------|---------------------------------|
   G|-----------------4464--|-----------------444-44-44-4444--|
   D|-------2222-4444-------|-------2222-4444----4--4--4------|
   A|--2222-----------------|--2222---------------------------|
   E|-----------------------|---------------------------------|


   verse 3

     guitar 1  (x7)
   e|-------------------|The reason for Why I
   B|--555-5-5-4-5-7-5--|suddendly moved The
   G|-------------------|place we usually Play
   D|-------------------|the verse is that it is
   A|-------------------|much easier to jump to
   E|-------------------|this place after the solo =)
     guitar 1  guitar 2
   e|-------| |--------|Guitar 2 plays this AFTER
   B|--2h0--| |--------|guitar one have played its
   G|-------| |--------|tones, not at the same time
   D|-------| |--7777--|
   A|-------| |--7777--|
   E|-------| |--5555--|


 Chorus
                guitar 2                                          
   e|------------------------------| It's many ways
   B|------------------------------| you can play
   G|--99999-----------------------| this chorus.          
   D|--99999--77777--99999999999---| Our band usually
   A|--77777--77777--99999999999---| Just mute this part
   E|---------55555--77777777777---| a bit

          (x7)        
   e|----------------|
   B|----------------|
   G|--99999---------|
   D|--99999--77777--|
   A|--77777--77777--|
   E|---------55555--|

 PLAY AND ENJOY!

            
            
Suggest correction
Creating personal tab
Creating personal tab
You can edit any tab online and save it as your Personal.

You can edit, replace or remove any tab part or add personal notes – all changes will be seen only by you.

Personal tabs can be accessed anytime from any device, even offline.
Learn more »
comments
print report bad tab
5 comments total. Showing first comments.
0 reply
joshuabeecroft 10 Jun 29, 2009 10:27 AM

GREAT TAB BUT I THING THE INTRO SOUNDS BETTER LIKE THIS;

e|----000-0-0-0-0-0--0-|
B|--000-0-0-0-0-0--0---|
G|--999-9-9-8-9-11-9--|
D|--------------------|
A|--------------------|
E|--------------------|

0 reply
joshuabeecroft 10 Jun 29, 2009 10:27 AM

I MENT

e|--000-0-0-0-0-0--0-|
B|--000-0-0-0-0-0--0---|
G|--999-9-9-8-9-11-9--|
D|--------------------|
A|--------------------|
E|--------------------|

0 reply
joshuabeecroft 10 Jun 29, 2009 10:29 AM

GREAT YAB BUT I THINK THE INTRO SOUNDS BETTER LIKE THIS

e|--000-0-0-0-0-0--0-|
B|--000-0-0-0-0-0--0---|
G|--999-9-9-8-9-11-9--|
D|--------------------|
A|--------------------|
E|--------------------|

guest
You may want to rate the tab now too:
select rating
Wanna post a correction for this tab? Suggest correction