Oops, an error
Loading. Please wait.

White Wedding Tab

version 1
version 1
227,002 views 180 this week
23 commentsread comments
1 2 3 4 5
accurate
x 83
add to favorites
launch autoscroll
font size
0
reset
how to read this tab
guitar tuner
Autoscroll
slow
fast
+/-
esc
set tempo
stop
Help us to improve Ultimate-Guitar.com Take our survey!
×
[Intro]

Bm      E  D
Bm      D  E
Bm ...


[Verse]

Bm   A  E
Bm   A  E
Bm   A  Bm


[Chorus]

A  E   Bm
E  D   Bm
E  D   Bm ..


thats pretty much what the chords are..   now for the "lead" ..

I take no respsibility for the timing here..  its months since
I've heard or played this.

e|--2-----------------2-----|--0-----------2------------|
B|-----3-----------3-----2--|--0-----------3------------|
G|--------4-----4-----------|--1-----------2------------|
D|-----------4--------------|--2-----------0------------|
A|--------------------------|--2------------------------|
E|--------------------------|--0------------------------|
 |
e|--2-----------------2-----|--2-----------0------------|
B|-----3-----------3-----2--|--3-----------0------------|
G|--------4-----4-----------|--2-----------1------------|
D|-----------4--------------|--0-----------2------------|
A|--------------------------|--------------2------------|
E|--------------------------|--------------0------------|
 |
e|--2-----------------------|---------------------------|
B|--3-----------------------|---------------------------|
G|--4-----------------------|---------------------------|
D|--4-----------------------|---------------------------|
A|--2-----------------------|---------------------------|
E|--------------------------|---------------------------|
 
or something like that ..  just play single strummed chords during the


[Chorus]

and the bridge bit is..  the little biff above..  (first 4 bars)
with this tacked on the end..


e|--2-----------------2-----|--2-----------------2------|
B|-----3-----------3-----3--|-----3-----------3-----3---|
G|--------4-----4-----------|--------4-----4------------|
D|-----------4--------------|-----------4---------------|
A|--------------------------|---------------------------|
E|--------------------------|---------------------------|
 |
e|--2-----------------2-----|--2------------------------|
B|-----3-----------3-----3--|-----3-------------3/5-3---|
G|--------4-----4-----------|--------4--------2---------|
D|-----------4--------------|-----------4--2------------|
A|--------------------------|---------------------------|
E|--------------------------|---------------------------|
 |
e|--------------------------|---------------------------|
B|--2-----------------------|---------------------------|
G|-----2-----4--------------|---------------------------|
D|--------4-----------------|---------------------------|
A|--------------------------|---------------------------|
E|--------------------------|---------------------------|

And there some bended notes from a solo electric from memory..
no hard to work out..

there... i'm impressed I remember it..  ..

later..

************************************

| /  Slide up

************************************
Suggest correction
What's this?
You can suggest a correction to this tab. Community and Mods will review your correction and vote to approve or reject it.
comments
print report bad tab
23 comments total. Showing first comments.
0 reply
Rockn_Clay 498 wrote on August 1 2005, 12:00 am

nice work

0 reply
grape_moosha 175 wrote on August 6 2005, 12:00 am

yh thought so stranger otherwise its perfect

0 reply
grape_moosha 175 wrote on August 6 2005, 12:00 am

yay my five star vote put it from 4 to five

guest
You may want to rate the tab now too:
select rating
Please do not post tabs as comments. Select "correction" instead!