Oops, an error
Loading. Please wait.
We have an official White Wedding tab made by UG professional guitarists. Check out the tab »
×

White Wedding bass

version 3
version 3

Whole song

  • Originally tabbed by LoudLon on the website BigBassTabs.com.
40 views 1 this week
no commentswrite comment
1 2 3 4 5
3 more votes to show rating
add to favorites
×
Save as Personal and add changes to this tab that will be seen only by you. Learn more ›
×
You can save this tab as Personal to edit and correct it or add notes. All changes will be seen only by you. Learn more »
launch autoscroll
font size
0
reset
guitar tuner
backing track
0:00
0:00
edit
Autoscroll
slow
fast
+/-
esc
set tempo
stop
About this tab version
Originally tabbed by LoudLon on the website BigBassTabs.com. Was this info helpful? Yes No
[Intro]
                             (x5)
G|-----------------|-------------------|------------------|
D|-----------------|-------------------|------------------|
A|-----------------|--------7-9-9-7----|--------7-9-9-7-7-|
E|-r---------------|-7-7-10---------10-|-7-7-10-----------|
   1 + 2 + 3 + 4 +   1 + 2  + 3 + 4 +    1 + 2  + 3 + 4 +

G|-----------------|-----------------|-------------------|------------------|
D|-----------------|-----------------|-------------------|------------------|
A|-----------------|-5-5-5-5-5-5-5-5-|--------7-9-9-7----|--------7-9-9-7-r-|
E|-0-0-0-0-0-0-0-0-|-----------------|-7-7-10---------10-|-7-7-10-----------|
   1 + 2 + 3 + 4 +   1 + 2 + 3 + 4 +   1 + 2  + 3 + 4 +    1 + 2  + 3 + 4 + 

                                                      (x2)  
G|-----------------|-----------------|-----------------|-----------------|
D|-----------------|-----------------|-----------------|-----------------|
A|-5-5-5-5-5-5-5-5-|-7-7-7-7-7-7-7---|-----------------|-----------------|
E|-----------------|---------------0-|-7-7-7-7-7-7-7-7-|-7-7-7-7-7-7-7-7-|
   1 + 2 + 3 + 4 +   1 + 2 + 3 + 4 +   1 + 2 + 3 + 4 +   1 + 2 + 3 + 4 +

[Verse 1] 
(Repeat 1st staff x2)
G|-----------------|-----------------|-----------------|-----------------|
D|-----------------|-----------------|-----------------|-----------------|
A|-----------------|-----------------|-----------------|-----------------|
E|-7-7-7-7-7-7-7-7-|-7-7-7-7-7-7-7-7-|-5-5-5-5-5-5-5-5-|-0-0-0-0-0-0-0-0-|
   1 + 2 + 3 + 4 +   1 + 2 + 3 + 4 +   1 + 2 + 3 + 4 +   1 + 2 + 3 + 4 +

G|-----------------|-----------------|-----------------|-----------------|
D|-----------------|-----------------|-----------------|-----------------|
A|-----------------|-----------------|-----------------|-----------------|
E|-7-7-7-7-7-7-7-7-|-7-7-7-7-7-7-7-7-|-5-5-5-5-5-5-5-5-|-5-5-5-5-5-5-5-5-|
   1 + 2 + 3 + 4 +   1 + 2 + 3 + 4 +   1 + 2 + 3 + 4 +   1 + 2 + 3 + 4 +

G|-----------------|-----------------|
D|-----------------|-----------------|
A|-----------------|-----------------|
E|-7-7-7-7-7-7-7-7-|-7-7-7-7-7-7-7-7-|
   1 + 2 + 3 + 4 +   1 + 2 + 3 + 4 +

[Chorus 1]
G|-----------------|-----------------|-----------------|-----------------|
D|-----------------|-----------------|-----------------|-----------------|
A|-----------------|-----------------|-----------------|-----------------|
E|-5-5-5-5-5-5-5-5-|-0-0-0-0-0-0-0-0-|-7-7-7-7-7-7-7-7-|-7-7-7-7-7-7-7-7-|
   1 + 2 + 3 + 4 +   1 + 2 + 3 + 4 +   1 + 2 + 3 + 4 +   1 + 2 + 3 + 4 +

G|-----------------|-----------------|-----------------|-----------------|
D|-----------------|-----------------|-----------------|-----------------|
A|-----------------|-5-5-5-5-5-5-5-5-|-----------------|-----------------|
E|-0-0-0-0-0-0-0-0-|-----------------|-7-7-7-7-7-7-7-7-|-7-7-7-7-7-7-7-7-|
   1 + 2 + 3 + 4 +   1 + 2 + 3 + 4 +   1 + 2 + 3 + 4 +   1 + 2 + 3 + 4 +

G|-----------------|-----------------|
D|-----------------|-----------------|
A|-----------------|-5---------------|
E|-0-0-0-0-0-0-0-0-|-----------------|
   1 + 2 + 3 + 4 +   1 + 2 + 3 + 4 +

[Pre-Verse]
G|-----------------|-----------------|
D|-----------------|-----------------|
A|-----------------|-----------------|
E|-7-7-7-7-7-7-7-7-|-7-7-7-7-7-7-7-7-|
   1 + 2 + 3 + 4 +   1 + 2 + 3 + 4 +

[Verse 2]
(Repeat 1st staff x2)
G|-----------------|-----------------|-----------------|-----------------|
D|-----------------|-----------------|-----------------|-----------------|
A|-----------------|-----------------|-----------------|-----------------|
E|-7-7-7-7-7-7-7-7-|-7-7-7-7-7-7-7-7-|-5-5-5-5-5-5-5-5-|-0-0-0-0-0-0-0-0-|
   1 + 2 + 3 + 4 +   1 + 2 + 3 + 4 +   1 + 2 + 3 + 4 +   1 + 2 + 3 + 4 +

G|-----------------|-----------------|-----------------|-----------------|
D|-----------------|-----------------|-----------------|-----------------|
A|-----------------|-----------------|-----------------|-----------------|
E|-7-7-7-7-7-7-7-7-|-7-7-7-7-7-7-7-7-|-5-5-5-5-5-5-5-5-|-5-5-5-5-5-5-5-5-|
   1 + 2 + 3 + 4 +   1 + 2 + 3 + 4 +   1 + 2 + 3 + 4 +   1 + 2 + 3 + 4 +

G|-----------------|-----------------|
D|-----------------|-----------------|
A|-----------------|-----------------|
E|-7-7-7-7-7-7-7-7-|-7-7-7-7-7-7-7-7-|
   1 + 2 + 3 + 4 +   1 + 2 + 3 + 4 +

[Chorus 2]
G|-----------------|-----------------|-----------------|-----------------|
D|-----------------|-----------------|-----------------|-----------------|
A|-----------------|-----------------|-----------------|-----------------|
E|-5-5-5-5-5-5-5-5-|-0-0-0-0-0-0-0-0-|-7-7-7-7-7-7-7-7-|-7-7-7-7-7-7-7-7-|
   1 + 2 + 3 + 4 +   1 + 2 + 3 + 4 +   1 + 2 + 3 + 4 +   1 + 2 + 3 + 4 +

G|-----------------|-----------------|-----------------|-----------------|
D|-----------------|-----------------|-----------------|-----------------|
A|-----------------|-5-5-5-5-5-5-5-5-|-----------------|-----------------|
E|-0-0-0-0-0-0-0-0-|-----------------|-7-7-7-7-7-7-7-7-|-7-7-7-7-7-7-7-7-|
   1 + 2 + 3 + 4 +   1 + 2 + 3 + 4 +   1 + 2 + 3 + 4 +   1 + 2 + 3 + 4 +

                                                     (x2)
G|-----------------|-----------------|-----------------|-----------------|
D|-----------------|-----------------|-----------------|-----------------|
A|-----------------|-5---------------|-----------------|-----------------|
E|-0-0-0-0-0-0-0-0-|-----------------|-7-7-7-7-7-7-7-7-|-7-7-7-7-7-7-7-7-|
   1 + 2 + 3 + 4 +   1 + 2 + 3 + 4 +   1 + 2 + 3 + 4 +   1 + 2 + 3 + 4 +

[Interlude]
G|-------------------|------------------|-----------------|-----------------|
D|-------------------|------------------|-----------------|-----------------|
A|--------7-9-9-7----|--------7-9-9-7---|-----------------|-5-5-5-5-5-5-5-5-|
E|-7-7-10---------10-|-7-7-10---------0-|-0-0-0-0-0-0-0-0-|-----------------|
   1 + 2  + 3 + 4 +    1 + 2  + 3 + 4 +   1 + 2 + 3 + 4 +   1 + 2 + 3 + 4 +

G|-------------------|------------------|-----------------|-----------------|
D|-------------------|------------------|-----------------|-----------------|
A|--------7-9-9-7----|--------7-9-9-7---|-5-5-5-5-5-5-5-5-|-7-7-7-7-7-7-7-7-|
E|-7-7-10---------10-|-7-7-10---------0-|-----------------|-----------------|
   1 + 2  + 3 + 4 +    1 + 2  + 3 + 4 +   1 + 2 + 3 + 4 +   1 + 2 + 3 + 4 +

G|-----------------|-----------------|-----------------|-----------------|
D|-----------------|-----------------|-----------------|-----------------|
A|-----------------|-----------------|-----------------|-----------------|
E|-7-7-7-7-7-7-7-7-|-7-7-7-7-7-7-7-7-|-0-0-0-0-0-0-0-0-|-0-0-0-0-0-0-0-0-|
   1 + 2 + 3 + 4 +   1 + 2 + 3 + 4 +   1 + 2 + 3 + 4 +   1 + 2 + 3 + 4 +

G|-----------------|-----------------|-----------------|-----------------|
D|-----------------|-----------------|-----------------|-----------------|
A|-----------------|-----------------|-5-5-5-5-5-5-5-5-|-7-7-7-7-7-7-7---|
E|-7-7-7-7-7-7-7-7-|-7-7-7-7-7-7-7-7-|-----------------|---------------0-|
   1 + 2 + 3 + 4 +   1 + 2 + 3 + 4 +   1 + 2 + 3 + 4 +   1 + 2 + 3 + 4 +

G|-----------------|-----------------|
D|-----------------|-----------------|
A|-----------------|-----------------|
E|-7-7-7-7-7-7-7-7-|-7-7-7-7-7-7-7-7-|
   1 + 2 + 3 + 4 +   1 + 2 + 3 + 4 +

[Pre-Verse]
G|-----------------|-----------------|-----------------|-----------------|
D|-----------------|-----------------|-----------------|-----------------|
A|-----------------|-----------------|-----------------|-----------------|
E|-5-5-5-5-5-5-5-5-|-0-0-0-0-0-0-0-0-|-7-7-7-7-7-7-7-7-|-7-7-7-7-7-7-7-7-|
   1 + 2 + 3 + 4 +   1 + 2 + 3 + 4 +   1 + 2 + 3 + 4 +   1 + 2 + 3 + 4 +

[Verse 3] 
(Repeat 1st staff x2)
G|-----------------|-----------------|-----------------|-----------------|
D|-----------------|-----------------|-----------------|-----------------|
A|-----------------|-----------------|-----------------|-----------------|
E|-7-7-7-7-7-7-7-7-|-7-7-7-7-7-7-7-7-|-5-5-5-5-5-5-5-5-|-0-0-0-0-0-0-0-0-|
   1 + 2 + 3 + 4 +   1 + 2 + 3 + 4 +   1 + 2 + 3 + 4 +   1 + 2 + 3 + 4 +

G|-----------------|-----------------|-----------------|-----------------|
D|-----------------|-----------------|-----------------|-----------------|
A|-----------------|-----------------|-----------------|-----------------|
E|-7-7-7-7-7-7-7-7-|-7-7-7-7-7-7-7-7-|-5-5-5-5-5-5-5-5-|-5-5-5-5-5-5-5-5-|
   1 + 2 + 3 + 4 +   1 + 2 + 3 + 4 +   1 + 2 + 3 + 4 +   1 + 2 + 3 + 4 +

G|-----------------|-----------------|
D|-----------------|-----------------|
A|-----------------|-----------------|
E|-7-7-7-7-7-7-7-7-|-7-7-7-7-7-7-7-7-|
   1 + 2 + 3 + 4 +   1 + 2 + 3 + 4 +

[Chorus 3]
G|-----------------|-----------------|-----------------|-----------------|
D|-----------------|-----------------|-----------------|-----------------|
A|-----------------|-----------------|-----------------|-----------------|
E|-5-5-5-5-5-5-5-5-|-0-0-0-0-0-0-0-0-|-7-7-7-7-7-7-7-7-|-7-7-7-7-7-7-7-7-|
   1 + 2 + 3 + 4 +   1 + 2 + 3 + 4 +   1 + 2 + 3 + 4 +   1 + 2 + 3 + 4 +

G|-----------------|-----------------|-----------------|-----------------|
D|-----------------|-----------------|-----------------|-----------------|
A|-----------------|-5-5-5-5-5-5-5-5-|-----------------|-----------------|
E|-0-0-0-0-0-0-0-0-|-----------------|-7-7-7-7-7-7-7-7-|-7-7-7-7-7-7-7-7-|
   1 + 2 + 3 + 4 +   1 + 2 + 3 + 4 +   1 + 2 + 3 + 4 +   1 + 2 + 3 + 4 +

                                                      (x2)
G|-----------------|-----------------|-----------------|-----------------|
D|-----------------|-----------------|-----------------|-----------------|
A|-----------------|-5---------------|-----------------|-----------------|
E|-0-0-0-0-0-0-0-0-|-----------------|-7-7-7-7-7-7-7-7-|-7-7-7-7-7-7-7-7-|
   1 + 2 + 3 + 4 +   1 + 2 + 3 + 4 +   1 + 2 + 3 + 4 +   1 + 2 + 3 + 4 +

[Bridge]
                  (x7)
G|-----------------|-----------------|-----------------|-----------------|
D|-----------------|-----------------|-----------------|-----------------|
A|-----------------|-----------------|-----------------|-5-5-5-5-5-5-5-5-|
E|-7-7-7-7-7-7-7-7-|-7-7-7-7-7-7-7-7-|-0-0-0-0-0-0-0-0-|-----------------|
   1 + 2 + 3 + 4 +   1 + 2 + 3 + 4 +   1 + 2 + 3 + 4 +   1 + 2 + 3 + 4 +

G|-----------------|-----------------|
D|-----------------|-----------------|
A|-----------------|-----------------|
E|-7-7-7-7-7-7-7-7-|-7-7-7-7-7-7-7-7-|
   1 + 2 + 3 + 4 +   1 + 2 + 3 + 4 +

[Chorus/Outro]
G|-----------------|-----------------|-----------------|-----------------|
D|-----------------|-----------------|-----------------|-----------------|
A|-5-5-5-5-5-5-5-5-|-7-7-7-7-7-7-7-7-|-----------------|-----------------|
E|-----------------|-----------------|-7-7-7-7-7-7-7-7-|-7-7-7-7-7-7-7-7-|
   1 + 2 + 3 + 4 +   1 + 2 + 3 + 4 +   1 + 2 + 3 + 4 +   1 + 2 + 3 + 4 +

G|-----------------|-----------------|-----------------|-----------------|
D|-----------------|-----------------|-----------------|-----------------|
A|-----------------|-5-5-5-5-5-5-5-5-|-----------------|-----------------|
E|-0-0-0-0-0-0-0-0-|-----------------|-7-7-7-7-7-7-7-7-|-7-7-7-7-7-7-7-7-|
   1 + 2 + 3 + 4 +   1 + 2 + 3 + 4 +   1 + 2 + 3 + 4 +   1 + 2 + 3 + 4 +
   
G|-----------------|-----------------|-----------------|-----------------|
D|-----------------|-----------------|-----------------|-----------------|
A|-----------------|-5-5-5-5-5-5-5---|-----------------|-----------------|
E|-0-0-0-0-0-0-0-0-|---------------0-|-7-7-7-7-7-7-7-7-|-7-7-7-7-7-7-7-7-|
   1 + 2 + 3 + 4 +   1 + 2 + 3 + 4 +   1 + 2 + 3 + 4 +   1 + 2 + 3 + 4 +

G|-----------------|-----------------|-----------------|-----------------|
D|-----------------|-----------------|-----------------|-----------------|
A|-----------------|-5-5-5-5-5-5-5-5-|-----------------|-----------------|
E|-0-0-0-0-0-0-0-0-|-----------------|-7-7-7-7-7-7-7-7-|-7-7-7-7-7-7-7-7-|
   1 + 2 + 3 + 4 +   1 + 2 + 3 + 4 +   1 + 2 + 3 + 4 +   1 + 2 + 3 + 4 +

            
            
Suggest correction
Creating personal tab
Creating personal tab
You can edit any tab online and save it as your Personal.

You can edit, replace or remove any tab part or add personal notes – all changes will be seen only by you.

Personal tabs can be accessed anytime from any device, even offline.
Learn more »
Give kudos to tab author, rate the tab!
1 2 3 4 5
comments
print report bad tab
guest
You may want to rate the tab now too:
select rating
Wanna post a correction for this tab? Suggest correction