Oops, an error
Loading. Please wait.

Bad To Me Bass Tab

1,069 views 6 this week
no commentswrite comment
1 2 3 4 5
please rate
add to favorites
launch autoscroll
font size
0
reset
guitar tuner
Tab Pro tools
  • play this tab
  • loop segment
  • change instrument
  • show fretboard
  • metronome
×
Best way to learn
"Bad To Me"
Autoscroll
slow
fast
+/-
esc
set tempo
stop
Contributor
Bad To Me
Billy J. Kramer And The Dakotas
Written by John Lennon and Paul McCartney; released as a single with "I Call 
Your Name" as the B-side

Intro:
G|----------------------------------------------------|
D|----------------------------------------------------|
A|----------------------------------------------------|
E|----------------------------------------------------|
                      If you ever leave me,


G|-----------------------------------------------------------------|
D|-----------------------------------------------------------------|
A|-----------------------------------------------------------------|
E|-----------------------------------------------------------------|
                            I'll be  sad and  blue,


G|----------------------------------------------------------------------------|
D|----------------------------------------------------------------------------|
A|----------------------------------------------------------------------------|
E|----------------------------------------------------------------------------|
                            Don't you ever leave me,                    I'm


G|--------------------------------------------------------------------|
D|--------------------------------------------------------------------|
A|--------------------------------------------------------------------|
E|--------------------------------------------------------------------|
  so      in      love       with     you.


G|------- ------- ------- -------|
D|-------------------------------|
A|-------------------------------|
E|-------------------------------|
                              The

Verse:
G|------- ------- ------- -------|------- ------- ------- -------|
D|-------------------------------|-------------------------------|
A|5-----------5---4-----------4--|------------------------4------|
E|-------------------------------|7-----------5---7--------------|
  birds   in  the sky     would be        sad and lonely  if  they


G|------- ------- ------- -------|------- ------- ------- -------|
D|-------------------------------|-------------------------------|
A|5-----------5---4-----------4--|-------------------------------|
E|-------------------------------|7-----------5---7-------5------|
  knew    that    I'd     lost my         one and on- ly, They'd be


G|------- ------- ------- -------|------- ------- ------- -------|
D|-------------------------------|-------------------------------|
A|-------------------------------|-------------------------------|
E|3-----------3---3-------3------|5-----------5-----------5------|
      sad                 if you're bad                   to


G|------- ------- ------- -------|------- ------- ------- -------|
D|-------------------------------|4-----------4---7---5---4------|
A|5-----------5-----------5------|----------------------------7--|
E|----------------5--------------|-------------------------------|
  me.                                                         The

Verse:
G|------- ------- ------- -------|------- ------- ------- -------|
D|-------------------------------|-------------------------------|
A|5-----------5---4-----------4--|------------------------4------|
E|-------------------------------|7-----------5---7--------------|
  leaves  on  the trees   would be        softly  sighing if  they


G|------- ------- ------- -------|------- ------- ------- -------|
D|-------------------------------|-------------------------------|
A|5-----------5---4-----------4--|-------------------------------|
E|-------------------------------|7-----------5---7-------5------|
  heard   from the breeze that you        left me crying, They'd be


G|------- ------- ------- -------|------- ------- ------- -------|
D|-------------------------------|-------------------------------|
A|-------------------------------|-------------------------------|
E|3-----------3-----------3------|5-----------5-----------5------|
      sad,                don't be bad                    to


G|------- ------- ------- -------|------- ------- ------- -------|
D|-------------------------------|-------------------------------|
A|5------------------------------|5------------------------------|
E|------------5-----------5------|-------------------------------|
  me.                                             But I   know you

Bridge:
G|------- ------- ------- -------|------- ------- ------- -------|
D|5-----------------------5------|7-----------------------7------|
A|------------5------------------|------------7------------------|
E|-------------------------------|-------------------------------|
  won't leave me,        'cause you   told me so,             and


G|------- ------- ------- -------|------- ------- ------- -------|
D|-------------------------------|9-----------------------9---7--|
A|9-----------------------9------|------------9------------------|
E|------------9------------------|-------------------------------|
  I've no in- tention         of  letting you go,


G|------- ------- ------- -------|------- ------- ------- -------|
D|-------------------------------|7-----------------------7------|
A|7-----------------------7------|------------7---7--------------|
E|------------7---7--------------|-------------------------------|
  Just    as      long    as  you let me      know            you


G|------- ------- ------- -------|------- ------- ------- -------|
D|-------------------------------|----------------7-------7------|
A|9-------9-------8-------8---7--|----7-------7------------------|
E|-------------------------------|-------------------------------|
  won't   be      bad to      me.                         So  the

Verse:
G|------- ------- ------- -------|------- ------- ------- -------|
D|-------------------------------|-------------------------------|
A|5-----------5---4-----------4--|------------------------4------|
E|-------------------------------|7-----------5---7--------------|
  birds   in  the sky     won't be        sad and lonely 'cause they


G|------- ------- ------- -------|------- ------- ------- -------|
D|-------------------------------|-------------------------------|
A|5-----------5---4-----------4--|-------------------------------|
E|-------------------------------|7-----------5---7-------5------|
      know   that I've    got my          one and on- ly, They'll be


G|------- ------- ------- -------|------- ------- ------- -------|
D|-------------------------------|-------------------------------|
A|-------------------------------|-------------------------------|
E|3-----------3-----------3------|5-----------5-----------5------|
      glad                you're  bad                     to
                              not
Verse (solo):
G|------- ------- ------- -------|------- ------- ------- -------|
D|-------------------------------|-------------------------------|
A|5-----------5---4-----------4--|------------------------4------|
E|-------------------------------|7-----------5---7--------------|
  me.


G|------- ------- ------- -------|------- ------- ------- -------|
D|-------------------------------|-------------------------------|
A|5-----------5---4-----------4--|-------------------------------|
E|-------------------------------|7-----------5---7-------5------|



G|------- ------- ------- -------|------- ------- ------- -------|
D|-------------------------------|-------------------------------|
A|-------------------------------|-------------------------------|
E|3-----------3-----------3------|5-----------5-----------5------|



G|------- ------- ------- -------|------- ------- ------- -------|
D|-------------------------------|-------------------------------|
A|5-----------5------------------|5------------------------------|
E|----------------5-------5------|-------------------------------|
                                                  But I   know you

Bridge:
G|------- ------- ------- -------|------- ------- ------- -------|
D|5-----------------------5------|7-----------------------7------|
A|------------5------------------|------------7------------------|
E|-------------------------------|-------------------------------|
  won't leave me,        'cause   told me     so,             and
                              you

G|------- ------- ------- -------|------- ------- ------- -------|
D|-------------------------------|9-----------------------9------|
A|9-----------------------9------|------------9------------------|
E|------------9------------------|-------------------------------|
  I've no in- tention         of  letting you go,


G|------- ------- ------- -------|------- ------- ------- -------|
D|-------------------------------|7-----------------------7------|
A|7-----------------------7------|------------7---7--------------|
E|------------7---7--------------|-------------------------------|
  Just    as      long    as  you let me      know            you


G|------- ------- ------- -------|------- ------- ------- -------|
D|-------------------------------|----------------7-------7------|
A|9-------9-------8---8-------7--|----7-------7------------------|
E|-------------------------------|-------------------------------|
  won't   be      bad to      me.                         So  the

Verse:
G|------- ------- ------- -------|------- ------- ------- -------|
D|-------------------------------|-------------------------------|
A|5-----------5---4-----------4--|------------------------4------|
E|-------------------------------|7-----------5---7--------------|
  birds   in  the sky     won't be        sad and lonely 'cause they


G|------- ------- ------- -------|------- ------- ------- -------|
D|-------------------------------|-------------------------------|
A|5-----------5---4-----------4--|-------------------------------|
E|-------------------------------|7-----------5---7-------5------|
      know   that I've    got my          one and on- ly, They'll be


G|------- ------- ------- -------|------- ------- ------- -------|
D|-------------------------------|-------------------------------|
A|-------------------------------|-------------------------------|
E|3-----------3-----------3------|5-----------5-----------5------|
      glad                you're  bad                     to
                              not

G|------- ------- ------- -------|------- ------- ------- -------|
D|-------------------------------|-------------------------------|
A|-------------------------------|----------------9--------------|
E|5---------------5-------8------|7-----------7-----------7------|
  me,                                                     They'll be

Outro:
G|------- ------- ------- -------|------- ------- ------- -------|
D|-------------------------------|-------------------------------|
A|----------------5--------------|----------------7--------------|
E|3-----------3-----------3------|5-----------5-----------5------|
      glad                you're  bad                     to
                              not

G|------- ------- ------- -------|------- ------- ------- -------|
D|-------------------------------|-------------------------------|
A|5-----------5---4-----------4--|------------------------4------|
E|-------------------------------|7-----------5---7--------------|
  me,                                                     to


G|------- ------- ------- -------|------- ------- ------- -------|
D|-------------------------------|-------------------------------|
A|5-----------5---4-----------4--|------------------------4------|
E|-------------------------------|7-----------5---7--------------|
  me,                                                     to


G|------- ------- ------- -------|------- ------- ------- -------|
D|-------------------------------|-------------------------------|
A|5-----------5---4-----------4--|-------------------------------|
E|-------------------------------|7-----------5---7-------5------|
  me.


G|------- ------- ------- -------|------- ------- ------- -------|
D|-------------------------------|-------------------------------|
A|5------------------------------|-------------------------------|
E|-------------------------------|-------------------------------|

Please e-mail me for any corrections, or write a comment.
comments
We did not receive enough feedback on this tab! Please rate:
print report bad tab
1 2 3 4 5
I want to post or [tab]
guest
You may want to rate the tab now too:
select rating
Please do not post tabs as comments. Select "correction" instead!