Oops, an error
Loading. Please wait.

Ill Keep You Satisfied Bass Tab

468 views 3 this week
no commentswrite comment
1 2 3 4 5
please rate
add to favorites
launch autoscroll
font size
0
reset
guitar tuner
Tab Pro tools
  • play this tab
  • loop segment
  • change instrument
  • show fretboard
  • metronome
×
Best way to learn
"Ill Keep You Satisfied"
Autoscroll
slow
fast
+/-
esc
set tempo
stop
Contributor
I'll Keep You Satisfied
Billy J. Kramer And The Dakotas
Written by John Lennon and Paul McCartney; released as a single with "I Know" 
as the B-side, and on the album "Little Children".

Intro:
G|------- ------- ------- -------|------- ------- ------- -------|
D|2---------------0--------------|-------------------------------|
A|-------------------------------|3---------------2--------------|
E|-------------------------------|-------------------------------|
                                                          You don't

Verse:
G|------- ------- ------- -------|------- ------- ------- -------|
D|4-----------4------------------|2-----------2------------------|
A|----------------2---2-------2--|----------------2---2-------2--|
E|-------------------------------|-------------------------------|
  need    a - ny- bo- dy  to  hold    you,                here I


G|------- ------- ------- -------|------- ------- ------- -------|
D|4-----------4------------------|2-----------2------------------|
A|----------------2---2-------2--|----------------2---2-------2--|
E|-------------------------------|-------------------------------|
  stand   with my arms o  -   pen wide.                   Give me


G|------- ------- ------- -------|------- ------- ------- -------|
D|2-----------2------------------|-------------------------------|
A|----------------5---5-------5--|4-----------4---3---3-------3--|
E|-------------------------------|-------------------------------|
  love,   and re- member  what I      told you,


G|------- ------- ------- -------|------- ------- ------- -------|
D|----------------------------2--|------------2-----------1---2--|
A|2-----------2---2---2----------|----------------2---2----------|
E|-------------------------------|-------------------------------|
  I'll    keep you    sa- tisfied.                        You don't

Verse:
G|------- ------- ------- -------|------- ------- ------- -------|
D|4-----------4------------------|2-----------2-----------1---2--|
A|----------------2---2-------2--|----------------2---2----------|
E|-------------------------------|-------------------------------|
  need    a - ny- bo- dy  to  kiss    you,                every


G|------- ------- ------- -------|------- ------- ------- -------|
D|4-----------4------------------|2-----------2---------------0--|
A|----------------2---2-------2--|----------------2---2---4------|
E|-------------------------------|-------------------------------|
  day     I'll be here by    your side.                   Don't go


G|------- ------- ------- -------|------- ------- ------- -------|
D|2-----------2------------------|-------------------------------|
A|----------------5---5-------5--|4-----------4---3---3-------3--|
E|-------------------------------|-------------------------------|
  'way,   I'm afraid that I   might       miss you,


G|------- ------- ------- -------|------- ------- ------- -------|
D|----------------------------2--|------------2-----------2---1--|
A|2-----------2---2---2----------|----------------2---2----------|
E|-------------------------------|-------------------------------|
  I'll    keep you    sa- tisfied.                        You can

Bridge:
G|------- ------- ------- -------|------- ------- ------- -------|
D|-------------------------------|-------------------------------|
A|2-----------2---2-----------2--|2-----------2---2-----------2--|
E|-------------------------------|-------------------------------|
  al  -   ways    get         a   simple      thing       like


G|------- ------- ------- -------|------- ------- ------- -------|
D|2-----------2---2-----------2--|-------------------------------|
A|-------------------------------|4-----------4---4-----------4--|
E|-------------------------------|-------------------------------|
      love                a - ny      time,               But it's


G|------- ------- ------- -------|------- ------- ------- -------|
D|-------------------------------|-------------------------------|
A|2-----------2---2-----------2--|-------------------------------|
E|-------------------------------|5-----------5---5-----------5--|
  diffe - rent    with        a   boy like    me          and a


G|------- ------- ------- -------|------- ------- ------- -------|
D|-------------------------------|------------------------1---2--|
A|----------------------------1--|2---2-----------2---2----------|
E|2-----------2---2--------------|--------2---2------------------|
  love                like            mine.               So  be-

Verse:
G|------- ------- ------- -------|------- ------- ------- -------|
D|4-----------4------------------|2-----------2-----------1---2--|
A|----------------2---2-------2--|----------------2---2----------|
E|-------------------------------|-------------------------------|
  lieve   everything that I   told    you,                and a-


G|------- ------- ------- -------|------- ------- ------- -------|
D|4-----------4------------------|2-----------2---------------0--|
A|----------------2---2-------2--|----------------2---2---4------|
E|-------------------------------|-------------------------------|
  gree    that    me  by     your side                    You don't
              with

G|------- ------- ------- -------|------- ------- ------- -------|
D|2-----------2------------------|-------------------------------|
A|----------------5---5-------5--|4-----------4---3---3-------3--|
E|-------------------------------|-------------------------------|
  need    a - ny- bo- dy  to  hold    you,


G|------- ------- ------- -------|------- ------- ------- -------|
D|----------------------------2--|------------2-----------1---2--|
A|2-----------2---2---2----------|----------------2---2----------|
E|-------------------------------|-------------------------------|
  I'll    keep you    sa- tisfied.

Verse (half-solo):
G|------- ------- ------- -------|------- ------- ------- -------|
D|4-----------4------------------|2-----------2-----------1------|
A|----------------2---2-------2--|----------------2---2-------2--|
E|-------------------------------|-------------------------------|



G|------- ------- ------- -------|------- ------- ------- -------|
D|4-----------4------------------|2-----------2---------------0--|
A|----------------2---2-------2--|----------------2---2---4------|
E|-------------------------------|-------------------------------|



G|------- ------- ------- -------|------- ------- ------- -------|
D|2-----------2------------------|-------------------------------|
A|----------------5---5-------5--|4-----------4---3---3-------3--|
E|-------------------------------|-------------------------------|



G|------- ------- ------- -------|------- ------- ------- -------|
D|----------------------------2--|2-----------2-----------2---1--|
A|2-----------2---2---2----------|----------------2---2----------|
E|-------------------------------|-------------------------------|
  I'll    keep you    sa- tisfied.                        You can

Bridge:
G|------- ------- ------- -------|------- ------- ------- -------|
D|-------------------------------|-------------------------------|
A|2-----------2---2-----------2--|2-----------2---2-----------2--|
E|-------------------------------|-------------------------------|
  al  -   ways    get         a   simple      thing       like


G|------- ------- ------- -------|------- ------- ------- -------|
D|2-----------2---2-----------2--|-------------------------------|
A|-------------------------------|4-----------4---4-----------4--|
E|-------------------------------|-------------------------------|
      love                a - ny      time,               But it's


G|------- ------- ------- -------|------- ------- ------- -------|
D|-------------------------------|-------------------------------|
A|2-----------2---2-----------2--|-------------------------------|
E|-------------------------------|5-----------5---5-----------5--|
  diffe - rent    with        a   boy like    me          and a


G|------- ------- ------- -------|------- ------- ------- -------|
D|-------------------------------|------------------------1---2--|
A|----------------------------1--|2---2-----------2---2----------|
E|2-----------2---2--------------|--------2---2------------------|
  love                like            mine.               So  be-

Verse:
G|------- ------- ------- -------|------- ------- ------- -------|
D|4-----------4------------------|2-----------2-----------1---2--|
A|----------------2---2-------2--|----------------2---2----------|
E|-------------------------------|-------------------------------|
  lieve   everything that I   told    you,                and a-


G|------- ------- ------- -------|------- ------- ------- -------|
D|4-----------4------------------|2-----------2---------------0--|
A|----------------2---2-------2--|----------------2---2---4------|
E|-------------------------------|-------------------------------|
  gree    that    me  by     your side                    You don't
              with

G|------- ------- ------- -------|------- ------- ------- -------|
D|2-----------2------------------|-------------------------------|
A|----------------5---5-------5--|4-----------4---3---3-------3--|
E|-------------------------------|-------------------------------|
  need    a - ny- bo- dy  to  hold    you,


G|------- ------- ------- -------|------- ------- ------- -------|
D|----------------------------2--|------------2---------------0--|
A|2-----------2---2---2----------|----------------2---2---4------|
E|-------------------------------|-------------------------------|
  I'll    keep you    sa- tisfied.                        Give me

Outro:
G|------- ------- ------- -------|------- ------- ------- -------|
D|2-----------2------------------|-------------------------------|
A|----------------5---5-------5--|4-----------4---3---3-------3--|
E|-------------------------------|-------------------------------|
  love,   and re- member  what I      told you,


G|------- ------- ------- -------|------- ------- ------- -------|
D|-------------------------------|-------------------------------|
A|2-----------2---2---2-------2--|2------------------------------|
E|-------------------------------|-------------------------------|
  I'll            keep you        sa          -           tis-


G|------- ------- ------- -------|------- ------- ------- -------|
D|------------2------------------|-------------------------------|
A|----------------2---2-------2--|-------------------------------|
E|0------------------------------|0------------------------------|
  fied.

Please e-mail me for any corrections, or write a comment.
comments
We did not receive enough feedback on this tab! Please rate:
print report bad tab
1 2 3 4 5
I want to post or [tab]
guest
You may want to rate the tab now too:
select rating
Please do not post tabs as comments. Select "correction" instead!