Oops, an error
Loading. Please wait.

Angry Young Man Tab

3,912 views 1 this week
no commentswrite comment
1 2 3 4 5
1 last vote to show rating
add to favorites
launch autoscroll
font size
0
reset
how to read this tab
guitar tuner
Autoscroll
slow
fast
+/-
esc
set tempo
stop
Help us to improve Ultimate-Guitar.com Take our survey!
×
Author
Difficulty
intermediate
Intro:

Piano solo.

|-------|-------|-----6--5--------|---------------|
|-------|-------|--8--------6-----|--------8-8-8--|
|---5---|---5---|--------------5--|--5--7---------|
|---5---|---5---|-----------------|---------------|
|---3---|---3---|-----------------|---------------|
|-------|-------|-----------------|---------------|

|------13--12----------|--------------------------|--------------|
|--15----------13------|----------15-15-15--------|--------------|
|------------------12--|--12--14------------------|--------------|
|----------------------|--------------------------|--------------|
|----------------------|--------------------------|-----------3--|
|----------------------|--------------------------|--3--1--3-----|

|-------------------------------|----------------------------|
|-------------------------------|----------------------------|  
|-------------------------------|----------------------------|  Repeat
|-----5/7--5-----5--7--5--------|-----5/7--5-----5-----------|  these two
|--3----------7-----------7--5--|--3----------7-----7--5--3--|  measures
|-------------------------------|----------------------------|

|--------------------------------|------------------------------|
|--------------------------------|------------------------------|
|--------------------------------|------------------------------|
|-----------2--0-----------------|--5-5-5-5-5--5-5-5-----7-7-7--|
|-----2-----------2--3-----0--2--|--3-3-3-3-3--3-3-3--5--5-5-5--|
|--3-----3--------------3--------|--------------------3---------|

|--------------------------------|-------------|
|--------------------------------|-------------|
|--------------------------------|-------------|
|-----------2--0-----------------|--5-------5--|
|-----2-----------2--3-----0--2--|--3---5---3--|
|--3-----3--------------3--------|------3------|

Piano solo.

|-------|-------|-----6--5--------|---------------|
|-------|-------|--8--------6-----|--------8-8-8--|
|---5---|---5---|--------------5--|--5--7---------|
|---5---|---5---|-----------------|---------------|
|---3---|---3---|-----------------|---------------|
|-------|-------|-----------------|---------------|

|------13--12----------|--------------------------|
|--15----------13------|----------15-15-15--------|
|------------------12--|--12--14------------------|
|----------------------|--------------------------|
|----------------------|--------------------------|
|----------------------|--------------------------|

|---------------------------|
|---------------------------|
|--5--------9--10-----------| Repeat 2x
|--x--6--7--x--x--11-12--5--|
|--3--x--x--7--8--x--x---x--|
|-----4--5--------9--10--3--|
Suggest correction
Give kudos to tab author, rate the tab!
1 2 3 4 5
comments
print report bad tab
guest
You may want to rate the tab now too:
select rating
Wanna post a correction for this tab? Suggest correction