Oops, an error
Loading. Please wait.

Dont Ask Me Why Bass Tab

2,040 views 3 this week
no commentswrite comment
1 2 3 4 5
please rate
add to favorites
launch autoscroll
font size
0
reset
guitar tuner
Autoscroll
slow
fast
+/-
esc
set tempo
stop
Help us to improve Ultimate-Guitar.com Take our survey!
×
ARTIST:  BILLY JOEL
SONG TITLE:  DON'T ASK ME WHY
ALBUM:  PIANO MAN; THE VERY BEST OF
SONG DURATION:  2:58
TABBED BY: 33ryan@fsmail.net


INTRO: PLAY SIX TIMES
--------------------|
--------------------|
-1--1-1-------------|
--------------------|


VERSE:
---------------------------------------------------------------------------|
-------------------------------2----2-----3--5--7------3--5--7-----8---8-8-|
-1--3--5------1--3--5----3--5----------------------------------------------|
---------------------------------------------------------------------------|

---------------------------------------------------------------------------|
-8---8-8---------------------------------2----2-----3--5--7------3--5--7---|
-----------1--3--5------1--3--5----3--5------------------------------------|
---------------------------------------------------------------------------|

-----------------------------------------------------|----------|
-8--8-8---7--7-7---5--5-5---3--3-3---2--2-2---3--3-3-|----------|  play 4
-----------------------------------------------------|-1--1-1---|  times
-----------------------------------------------------|----------|


INTERLUDE:
----------------------------------------------------------------------------|
-3-3--3---3-3---1-1--1---1-1---3-3--3---3-3---------------------------------|
----------------------------------------------1-1--1---1-1------------------|
-------------------------------------------------------------3-3--3---3-3---|

-----------------------------|----------------------|-----------------------|
-----------------------------|-------------3--3-3--3|-----------------------|
-3-3--3---3-3----------------|-3--3-3--3------------|-3-3---3---------------|
----------------3-3--3---3-3-|----------------------|-----------1--1--1-----|
                               1st interlude ending     2nd int. ending


ENDING:
---------------|
---------------|
-1--1-1----1---|
---------1-----|

PLAY IN THIS ORDER:
INTRO
0:07 VERSE
0:36 VERSE
1:05 INTERLUDE (WITH 1st ENDING)
1:25 VERSE
1:54 INTERLUDE (WITH 2nd ENDING)
2:14 VERSE
ENDING: PLAY THE INTRO SECTION AT THE END OF THE LAST VERSE UNTIL THE ENDING SECTION.
Suggest correction
Give kudos to tab author, rate the tab!
1 2 3 4 5
comments
print report bad tab
guest
You may want to rate the tab now too:
select rating
Wanna post a correction for this tab? Suggest correction