Oops, an error
Loading. Please wait.

Its Still Rock And Roll To Me Bass Tab

version 2
version 2

Whole song

Interactive

2,929 views 3 this week
no commentswrite comment
1 2 3 4 5
please rate
add to favorites
launch autoscroll
font size
0
reset
guitar tuner
Autoscroll
slow
fast
+/-
esc
set tempo
stop
Help us to improve Ultimate-Guitar.com Take our survey!
×
Author
Difficulty
novice
        It's Still Rock and Roll to Me" by Billy Joel

This piece is in 12/8 time in the style of swung 8th-notes.


                   Play 4x
G|-----------------------------|
D|.---------------------------.|
A|.-3---3--3---3--3---3--3---3.|
E|-----------------------------|

|-----------------------------|------------------------------|
|.----------------------------|------------------------------|
|.-C---3--3---3--3---3--3---3-|------------------------------|
|-----------------------------|--E---0--0---0--0---0--0---0--|
  What's the matter with the    clothes I'm wearing? Can't You  

|-----------------------------|-----------------------------|
|-----------------------------|----------------------------.|
|--A#---1--1---1--1---1--1--1-|----------------------------.|
|-----------------------------|--F---1--1---1--1---1--1---1-|
  tell that your tie's too       wide?"

|-----------------------------|------------------------------|
|.----------------------------|------------------------------|
|.-C---3--3---3--3---3--3---3-|------------------------------|
|-----------------------------|--E---0--0---0--0---0--0---0--|
  Maybe I should bye some        old tab collars    Welcome 

|-----------------------------|-----------------------------|
|-----------------------------|----------------------------.|
|--A#---1--1---1--1---1--1--1-|----------------------------.|
|-----------------------------|--F---1--1---1--1---1--1---1-|
  back to the age of             jive.


|-----------------------------|-----------------------------|
|-----------------------------|-----------------------------|
|-----------------------------|--A---0--0---0--0---0--0---0-|
|--E---0--0---0--0---0--0---0-|-----------------------------|
  Where have you been hiddin'   out lately, honey     You

|-----------------------------|-----------------------------|
|-----------------------------|-----------------------------|
|-----------------------------|--D---5--5---5---------------|
|--E---0--0---0--0---0--0---0-|----------------G---3--3---3-|
  can't dress trashy till you   spend a lot of money"

|-----------------------------|-----------------------------|
|-----------------------------|-----------------------------|
|-C-3-3-3---------------------|--A#---1--1---1--------------|
|----------- E---0--0---0-----|----------------F---1--1---1-|
Everybody’s  talkin’ 'bout the   new sound.    Funny, but it




|-----------------------------|-----------------------------|
|-----------------------------|-----------------------------|
|--A---0--0---0---------------|--C---3--3-3-3--3-3-3--3-3-3-|
|----------------G---3--3---3-|-----------------------------|
   still          rock n roll    to me.
|-----------------------------|
|-----------------------------|
|--3-3-3--3-3-3--3-3-3--3-3-3-|
|-----------------------------|

     -Repeat the whole phrase with the exception of the intro-
|-----------------------------|------------------------------|
|.----------------------------|------------------------------|
|.-3---3--3---3--3---3--3---3-|------------------------------|
|-----------------------------|--0---0--0---0--0---0--0---0--|
 What's the matter with the      car I'm driving? Can't you          

|-----------------------------|-----------------------------|
|-----------------------------|----------------------------.|
|--1---1--1---1--1---1--1---1-|----------------------------.|
|-----------------------------|--1---1--1---1--1---1--1---1-|
  tell it's out of               style?"

|-----------------------------|------------------------------|
|.----------------------------|------------------------------|
|.-3---3--3---3--3---3--3---3-|------------------------------|
|-----------------------------|--0---0--0---0--0---0--0---0--|
  Should I get a set of          white wall tires?  "Are you 


|-----------------------------|-----------------------------|
|-----------------------------|----------------------------.|
|--1---1--1---1--1---1--1---1-|----------------------------.|
|-----------------------------|--1---1--1---1--1---1--1---1-|
   gonna cruise the miracle             mile?


|-----------------------------|-----------------------------|
|-----------------------------|-----------------------------|
|-----------------------------|--0---0--0---0--0---0--0---0-|
|--0---0--0---0--0---0--0---0-|-----------------------------|
  Nowadays you cant't be         too sentimental.     Your


|-----------------------------|-----------------------------|
|-----------------------------|-----------------------------|
|-----------------------------|--5---5--5---5---------------|
|--0---0--0---0--0---0--0---0-|----------------3---3--3---3-|
   best bet's a true baby,       blue    Continental

|-----------------------------|-----------------------------|
|-----------------------------|-----------------------------|
|-3-3-3-3---------------------|--1---1--1---1---------------|
|----------- 0---0--0---0-----|----------------1---1--1---1-|
 Hot funk,   cool punk           even if it's  old junk  Its

|-----------------------------|-----------------------------|
|-----------------------------|-----------------------------|
|--0---0--0---0---------------|--3---3--3-3-3--3-3-3--3-3-3-|
|----------------3---3--3---3-|-----------------------------|
   still         rocknroll to    me.              Ohhhhhhhh    




|-----------------------------|-----------------------------
|-----------------------------|-----------------------------
|-----------------------------|-----------------------------
|---3---3---3----3------------|---1----1----1----1----------
  it doesn't matter what they    say in the pappers, cause

 
|-----------------------------|-----------------------------|
|-----------------------------|----------------------------.|
|-----------------------------|--0---0---0----0-------------|
|--0-----0----0-------0-------|-----------------------------|
 it's always been the same old   scene.


|--------------------------------|------------------------------|
|.-------------------------------|------------------------------|
|.-------------------------------|------------------------------|
|---3---3---3------3-------------|--1---1-----1------1----------|
There's a new band in town butyou   can't get the sound from a


|-----------------------------|-----------------------------|
|-----------------------------|----------------------------.|
|-----------------------------|----------------------------.|
|---0---0----0----0-----------|--4---4--4---4---------------|
   story in a       mag  a       zine             
|-----------------------------|-----------------------------|
|-----------------------------|-----------------------------|
|-----------------------------|-----------------------------|
|--0---0--0---0--0------------|--1-------1-----1-----1----3-
  aimed at your average         teen.


Suggest correction
What's this?
You can suggest a correction to this tab. Community and Mods will review your correction and vote to approve or reject it.
comments
We did not receive enough feedback on this tab! Please rate:
print report bad tab
1 2 3 4 5
guest
You may want to rate the tab now too:
select rating
Please do not post tabs as comments. Select "correction" instead!