Oops, an error
Loading. Please wait.

Miami 2017 Tab

version 2
version 2

Whole song

1,436 views 3 this week
no commentswrite comment
1 2 3 4 5
please rate
add to favorites
launch autoscroll
font size
0
reset
how to read this tab
guitar tuner
Tab Pro tools
  • play this tab
  • loop segment
  • change instrument
  • show fretboard
  • metronome
Autoscroll
slow
fast
+/-
esc
set tempo
stop
Contributor
Artist: Billy Joel
Song: Miami 2017 (Seen The Lights Go Out On Broadway)
Album: Songs in the Attic
Year: 1976
Tabbed by DoteStudios
Email is undermywheels71@gmail.com

Here is the guitar part for the song. The last parts (part 4 and 5) are played ONCE at
end of the song. This is the full song for guitar, which means no piano intro or sax solo
The chords are all right, you can do what the guitarist does and add a note to some 
randomly to spice it up. Enjoy!

Keys
~ - vibrato

Part 1
E-------------------------------------------------------------|
B-------------------------------------------------------------|
G-------------------------------4~~~------6~~~------4~~~------|
D-4~~~------5~~~------7~~~------------------------------------|
A-------------------------------------------------------------|
E-------------------------------------------------------------|

Part 2
E---------------------------------------------------------------------|
B-------3--3-----------3---------3----------2--2-----2---2---2--2-----|
G-------2--2-----------2---------2----------2--2-----3---3---3--2-----|
D-------0--0-----------0---------0----------2--2-----0---0---0--2-----|
A-0--3-----------0--3------0--3-------------0--0----------------0-----|
E-------------------------------------0--3----------------------------|

Part 3
E-2---2----2---3---3----3---2---2----2---2---2----2-------------------|
B-3---3----3---3---3----3---3---3----3---3---3----3---3---3----3------|
G-2---2----2---2---2----2---2---2----2---2---2----2---4---4----4---4--|
D-0---0----0---0---0----0---0---0----0---0---0----0---4---4----4---5--|
A-----------------------------------------------------2---2----2---5--|
E------------------------------------------------------------------3--|

E---------------------------------------------------------------------|
B---------2---2----2---2---2----2-----------------------------3---3---|
G-4---4---2---2----2---2---2----2---2---2----2---2---2----2---4---4---|
D-5---5---2---2----2---2---2----2---4---4----4---4---4----4---4---4---|
A-5---5---0---0----0---0---0----0---4---4----4---4---4----4---2---2---|
E-3---3-----------------------------2---2----2---2---2----2-----------|

E---------------------------------------------------------------------|
B-3---2---2----2---2---2----2---2---2----2----------------------------|
G-4---4---4----4---2---2----2---2---2----2---4---4----4---4---4----4--|
D-4---4---4----4---2---2----2---2---2----2---5---5----5---5---5----5--|
A-2---2---2----2---0---0----0---0---0----0---5---5----5---5---5----5--|
E--------------------------------------------3---3----3---3---3----3--|

E-2---2----2---3---3----3---2---2----2---2---2----2-------------------|
B-3---3----3---3---3----3---3---3----3---3---3----3---3---3----3------|
G-2---2----2---2---2----2---2---2----2---2---2----2---4---4----4---4--|
D-0---0----0---0---0----0---0---0----0---0---0----0---4---4----4---5--|
A-----------------------------------------------------2---2----2---5--|
E------------------------------------------------------------------3--|

E-----------------------------------|
B---------2---2----2---2---2----2---|
G-4---4---2---2----2---2---2----2---|
D-5---5---2---2----2---2---2----2---|
A-5---5---0---0----0---0---0----0---|
E-3---3-----------------------------|

Part 4
E----------------------------------------|
B--------------------------------7-------|
G-7--7--7---7--7--7--------------7-------|
D-7--7--7---7--7--7-------7------7-------|
A-5--5--5---5--5--5-------5--------------|
E-------------------------5--------------|

Part 5
E---------------------------------------------------------------------|
B---------------------------------------------------------------------|
G-------------------------------4~~~------6~~~------4~~~------3~~~----|
D-4~~~------5~~~------7~~~--------------------------------------------|
A---------------------------------------------------------------------|
E---------------------------------------------------------------------|

Order of Song:
Piano Intro

Seen the lights go out on broadway
I saw the Empire State laid low
And life went on beyond the Palisades
They all bought Cadillacs
And left there long ago
They held a concert out in Brooklyn
To watch the island bridges blow

Part 1
They turned our power down
And drove us underground
But we went right on with the show

Part 2 (2x)
Oooh…

Part 3
I've seen the lights go out on Broadway
I saw the ruins at my feet
You know we almost didn't notice it
We'd seen it all time on Forty-second Street
They burned the chuches up in Harlem
Like in the Spanish civil war

Part 1
The flames were everywhere
But no one really cared
It always burned up there before

Part 2 (2x)
Oooh…

Part 3
I've seen the lights go out on Broadway
I watched the mighty skyline fall
The boats were waiting at the battery
The union went on strike
They never sailed at all
They sent a carrier out from Norfolk
And picked the Yankees up for free

Part 1
They said that Queens could stay
And blew the Bronx away
And sank Manhattan out at sea

Part 2 (2x)

Part 4
You know those lights were bright on Broadway
That was so many years ago

Before we all lived here in Florida
Before the Mafia took over Mexico
There are not many who remember
They say a handful still survive

Part 5
To tell the world about
The way the lights went out
And keep the memory alive

Piano Outro
comments
We did not receive enough feedback on this tab! Please rate:
print report bad tab
1 2 3 4 5
I want to post or [tab]
guest
You may want to rate the tab now too:
select rating
Please do not post tabs as comments. Select "correction" instead!