Oops, an error
Loading. Please wait.

Scenes From An Italian Restaurant bass

1,192 views 6 this week
no commentswrite comment
1 2 3 4 5
x 3
add to favorites
×
Save as Personal and add changes to this tab that will be seen only by you. Learn more ›
×
You can save this tab as Personal to edit and correct it or add notes. All changes will be seen only by you. Learn more »
launch autoscroll
font size
0
reset
guitar tuner
backing track
0:00
0:00
edit
Autoscroll
slow
fast
+/-
esc
set tempo
stop
Author
Scenes From an Italian Restaurant
Billy Joel
Bass Tab
Bass: Doug Stegmeyer

Tempos are estimates

70BPM, 4/4

Intro

|---------|---------|---------|---------|
|---------|---------|---------|---------|
|---------|---------|---------|---------|
|---------|---------|---------|---------|

Verse

||----------|---------|---------|----------||
||o---------|---------|---------|---------o||
||o---------|---------|---------|---------o||
||----------|---------|---------|----------||

|---------|---------|---------|------------|
|---------|---------|---------|-------10s==|
|---------|---------|---------|------------|
|---------|---------|---------|------------|

|----------|----------|----------|---------|
|-3--------|-3--------|-3--------|---------|
|----------|----------|----------|---------|
|----------|----------|----------|---------|

|------------|-------7--9--|-10---------|----------|
|-5----7--9--|-10----------|------------|----------|
|------------|-------------|----------8-|-8--------|
|------------|-------------|------------|----------|

Interlude

|-----------|------32------|-----------|-----------|
|------3----|-----3---5-3--|------3----|-----------|
|-3---------|-1----------1-|-3---------|-1---x1----|
|-----------|--------------|-----------|-----------|

|------/10-8------|------------|------8*--8-8-|-----------| *Dotted Eighth
|-1---x--------108|-6--------6-|-----8---8----|-6---------|
|-----------------|---------6--|-6------------|-----6-----|
|-----------------|------4-----|--------------|------4----|

|-----------------|-----------------|
|-----------------|-----------------|
|-5-5-5-5-5-5-5-5-|-5-5-5-5-5-5-5-5-|
|-----------------|-----------------|

192BPM

|----------|---------|----------|---------|
|----------|---------|----------|---------|
|----------|---------|----------|---------|
|-3--------|---------|-3--------|---------|

|----------|----------|----------|------------|
|----------|-3--------|----------|------------|
|-3--------|----------|----------|-5----5\----|
|----------|----------|-5--------|------------|

|----------|---------|----------|---------|
|----------|---------|----------|---------|
|----------|---------|----------|---------|
|-3--------|---------|-3--------|---------|

|----------|-----------|-------------|------------|
|----------|-3---------|-------------|------------|
|-3--------|-----------|----2--3--4--|-5----5\----|
|----------|---------x-|-5-----------|------------|
                                                        3x
||-------------|-----------|-------------|--------------||
||o------------|-----------|-------------|-------------o||
||o-6----6\----|-1----1----|-------------|-------------o||
||-------------|-----------|-1--1---1--1-|-1---1--1-1---||

|----------|----------|-------------|-------------|
|-1--------|----------|-------------|----2--3--4--|
|----------|-1--------|-3--2--3--4--|-5-----------|
|----------|----------|-------------|-------------|

Horns

|-----------|-----------|-----------|------------|
|-5---------|-----------|-5---------|------------|
|------5----|------5----|------5----|-------2----|
|-----------|-3---------|-----------|-3--5-------|

|------5----|-------------|-------------|-----------|
|-----------|-3----3--3-3-|-------------|-----------|
|-3---------|-------------|----2--3--4--|-5----5----|
|-----------|-------------|-5-----------|-----------|

|-----------|-----------|-----------|------------|
|-5---------|-----------|-5---------|------------|
|------5----|------5----|------5----|-------2----|
|-----------|-3---------|-----------|-3--5-------|

|-----------|-------------|-------------|
|-----------|-3----3--3-3-|-------------|
|-3----3----|-------------|----2--3--4--|
|-----------|-------------|-5-----------|

|----7-7-7--7-7-|-7--7-7-7--7-7-|-7--7-7-7--7-7-|-7--7-7-7--7\--|
|---------------|---------------|---------------|---------------|
|-5-------------|---------------|---------------|---------------|
|---------------|---------------|---------------|---------------|

|----------|---------|----------|---------|
|----------|---------|----------|---------|
|----------|---------|----------|---------|
|-3--------|---------|-3--------|---------|

||----------|---------|---------|----------||
||o---------|---------|---------|---------o||
||o---------|---------|---------|---------o||
||----------|---------|---------|----------||

200BPM

|-------------|--------------|--------------|--------------|
|-5---5--5--5-|-3----3-3-3-3-|-2--x-2---2-2-|--------------|
|-------------|--------------|--------------|-5--x-5---5-5-|
|-------------|--------------|--------------|--------------|

|-------------|----------------|----------------|---------------|
|-5--x-5----5-|-3-3--x-3-3-3-3-|-2-2--x-2-2-2-2-|---------------|
|-------------|----------------|----------------|-5-5--x-5-5-5--|
|-------------|----------------|----------------|---------------|

Brenda and Eddie

|--------------|--------------|--------------|--------------|
|--------------|--------------|--------------|--------------|
|--------------|--------------|-5---x-5-5--x-|-5-5--x-5--3--|
|-3---x-3-3--x-|-3---x-3-3--x-|--------------|--------------|

|---------------|--------------|-------------|--------------|
|---------------|--------------|-------------|--------------|
|-------------x-|-2-2---2-2-2--|-3-3---3-3---|-3-3---3-3-3--|
|-3-3--x-3-3----|--------------|-------------|--------------|

|--------------|-------------|----------------|--------------|
|--------------|-------------|----------------|--------------|
|--------------|-5-5---5--3--|----------------|-3-3--x-3-3---|
|-3---x-3-3--3-|-------------|-3-3--x-3-3-3-3-|--------------|

|--------------|--------------|-------------|---------------|
|--------------|--------------|-------------|---------------|
|--------------|--------------|-------------|---------------|
|-3-3--x-3-3---|-1-1--x-1-1---|-0---0-2--2--|-4---4-0-0-0-0-|

|---------------|--------------|
|---------------|--------------|
|--------2-2--2-|-3-3--3-5-5---|
|-5-5--5--------|--------------|

|-------------|---------------|---------------|--------------|
|-5----5--5-5-|-3-3--x-3--3-3-|-2-2--x-2--2-2-|--------------|
|-------------|---------------|---------------|-5---x-5--5-5-|
|-------------|---------------|---------------|--------------|

|-------------|---------------|---------------|-----------------|
|-5----5--5-5-|-3-3--x-3--3-3-|-2-2--x-2--2-2-|-----------------|
|-------------|---------------|---------------|-5-5-5-5-5-5-5-5-|
|-------------|---------------|---------------|-----------------|

|---------------|---------------|---------------|--------------|
|---------------|---------------|---------------|--------------|
|---------------|---------------|-5-5--x-5-5--x-|-5-5--x-5--3--|
|-3-3--x-3-3--x-|-3-3--x-3-3--x-|---------------|--------------|

|----------------|---------------|---------------|----------------|
|----------------|---------------|---------------|----------------|
|------------0-1-|-2-2--x-2-2--x-|-3-3--x-3-3--x-|-3-3--x-3-3-3-3-|
|-3-3--x-3-3-----|---------------|---------------|----------------|

|--------------|-------------|--------------|---------------|
|--------------|-------------|--------------|---------------|
|--------------|-5-5---5--3--|--------------|-3-3--x-3-3--3-|
|-3---x-3-3--3-|-------------|-3-3--x-3-3---|---------------|

|---------------|----------------|--------------|--------------|
|---5-----------|----------------|---2-----4--4-|---6--6---2---|
|---------------|----------------|--------------|--------------|
|-3----x-3-3--x-|-1-1--x-1-1-1-1-|-0-----2------|-4------0-----|

|---2---2---4---4-|---5---5---7---7-|
|-----------------|-----------------|
|-0---0---2---2---|-3---3---5---5---|
|-----------------|-----------------|

|---------------|---------------|---------------|----------------|
|-5-5--x-5--5-5-|-3-3---3-3-3-3-|-2-2---2-2-2-2-|----------------|
|---------------|---------------|---------------|-5-5--x-5-5-5-5-|
|---------------|---------------|---------------|----------------|

"Well they got an apartment"

|--------------|---------------|---------------|--------------|
|--------------|---------------|---------------|--------------|
|-3-3--3--3-3--|-3-3--3--3-3-3-|-5-5--5--5-5-x-|--------------|
|--------------|---------------|---------------|-3--x-3--3--3-|

|--------------|---------------|---------------|---------------|
|--------------|---------------|---------------|---------------|
|-3-3--3--3-3--|-3-3--3--3-3-3-|-5-5--5--5-5-5-|---------------|
|--------------|---------------|---------------|-3-3--3--3-3-3-|

|---------------|---------------|---------------|---------------|
|---------------|---------------|---------------|-2-2--2--2-2-2-|
|-3-3--3--3-3-3-|-3-3--3--3-3-3-|-5-5--5--5-5-5-|---------------|
|---------------|---------------|---------------|---------------|

|---------------|---------------|---------------|
|---------------|---------------|---------------|
|---------------|-5-5--5--5-5-5-|-5-5--5--5-5-5-|
|-5-5--5--5-5-5-|---------------|---------------|

Solo

|---------------|---------------|-----4-------4-4-|-----4-------4-4-|
|---------------|---------------|-------4-7-x-----|-------4-7-4-----|
|---------------|-------------4-|-5-5-------------|-5-5-------------|
|-3-3--x-3-3--x-|-3-3--x-3-3----|-----------------|-----------------|

|----------------|---------------|---------------|---------------|
|----------------|---------------|---------------|---------5-7---|
|------------0-1-|-2-2--x-2-2--x-|-3-3--x-3-3--x-|-3-3--7------7-|
|-3-3--x-3-3-----|---------------|---------------|---------------|

|----------------|--------------|---------------|----------------|
|-5-5--x-5-5-5-5-|--------------|---------------|----------------|
|----------------|-5-5--x-5--3--|---------------|-3-3--x-3-3-3-3-|
|----------------|--------------|-3-3--x-3-3--x-|----------------|

|----------------|----------------|-----------------|-----------------|
|---5--5---5---5-|---3--3---3---3-|---2---2---4---4-|---6---6---2---2-|
|----------------|----------------|-----------------|-----------------|
|-3------3---3---|-1------1---1---|-0---0---2---2---|-4---4---0---0---|

|---2---2---4---4-|---5---5---7---7-|
|-----------------|-----------------|
|-0---0---2---2---|-3---3---5---5---|
|-----------------|-----------------|

|---------------|---------------|---------------|----------------|
|-5-5--x-5--5-5-|-3-3--x-3--3-3-|-2-2--x-2--2-2-|----------------|
|---------------|---------------|---------------|-5-5--x-5-5-5-5-|
|---------------|---------------|---------------|----------------|

Break

|-----5-5------|---------|-----7-7--------|-----------|
|---5----------|---------|---7----------5-|-----------|
|-3---------3--|---------|-5--------5-5---|--5--------|
|--------------|---------|----------------|----3------|

|-----5-5---------|---------|-----7-7--------|-----------|
|---5------5------|---------|---7----------5-|----5------|
|-3----------3-h3-|---------|-5--------5-5---|--5--------|
|-----------------|---------|----------------|-----------|

|-----5-5-------|---------|-----7-7---------|--------------|
|---5------5----|---------|---7-------------|--------------|
|-3----------3--|---------|-5--------5-h5-7-|-h7--7--7--7--|
|---------------|---------|-----------------|--------------|

|----------------|----------------|----------------|
|----------------|----------------|----------------|
|----------------|-5-5--x-5-5-5-5-|-5-5--x-5-5-5-5-|
|-5-5--x-5-5-5-5-|----------------|----------------|

Brenda and Eddie

|--------------|----------------|--------------|--------------|
|-5-5--x-5-5---|-5-5--x-5-5-5-5-|--------------|--------------|
|--------------|----------------|-5-5--x-5-5---|-5-5--x-5--3--|
|--------------|----------------|--------------|--------------|

|------------2-3-|-4-4--x-4-4-4-4-|-5-5--x-5--x-5-|-5---x-5-5-5---|
|-5-5--x-5-5-----|----------------|---------------|-------------4-|
|----------------|----------------|---------------|---------------|
|----------------|----------------|---------------|---------------|

|-------------|-------------|-------------|--------------|
|-5---x-5-5---|-------------|-5---x-5-5---|--------------|
|-------------|-5---x-5--3--|-------------|-3-3--x-3-3---|
|-------------|-------------|-------------|--------------|

|-----------------|-----------------|----------------|-----------------|
|---5---5---5---5-|---3---3---3---3-|---2--2---4---4-|---6---6---2---2-|
|-----------------|-----------------|----------------|-----------------|
|-3---3---3---3---|-1---1---1---1---|-0------2---2---|-4---4---0---0---|

|---2--2---4---4-|---5---5---7---7-|---2---2---4---4-|---5---5---7---7-|
|----------------|-----------------|-----------------|-----------------|
|-0------2---2---|-3---3---5---5---|-0---0---2---2---|-3---3---5---5---|
|----------------|-----------------|-----------------|-----------------|

|---2---2---4-4-4-|---5---5---7---7-|
|-----------------|-----------------|
|-0---0---2-------|-3---3---5---5---|
|-----------------|-----------------|
                                                                    3x
||----------------|---------------|---------------|-----------------||
||o-5-5--x-5--5-5-|-3-3--x-3--3-3-|-2-2--x-2--2-2-|----------------o||
||o---------------|---------------|---------------|-5-5--x-5-5-5-5-o||
||----------------|---------------|---------------|-----------------||

|------------|------------|------------|------------|
|-3---2------|------------|------------|------------|
|---------5--|--3---2-----|-3---1---0--|------------|
|------------|---------5--|------------|--3---1--0--|

68BPM

|-----------|--------------|------------|------------|
|-----------|-3---3-3---x3x|-3---3-3----|-----3---/--|
|----------3|--------------|------------|-1----------|
|-1---x1----|--------------|------------|------------|

|-----------|---------|---------|-----------|
|-10--------|---------|---------|-----------|
|-----------|---------|---------|-----------|
|-----------|---------|---------|-------8\--|

|------------|------------|------------|-----------|
|------------|------------|------------|-----3-----|
|------------|------------|------------|-1---------|
|-1---1-1---x|-1---1-1----|-1---1-1----|-----------|

|----------------|-----------------|-------------|------------|
|-5----(7)--(9)--|-(10)------------|-------------|------------|
|----------------|-------(5)--(7)--|-(8)-------8-|-8---8-8----|
|----------------|-----------------|-------------|------------|

Ending

|-----------|----------|-----------|----------|
|------3----|----------|------3----|----------|
|-3---------|-1--------|-3---------|-1--------|
|-----------|----------|-----------|----------|

|----7-----9---|----10--/12----|----------|---------*|
|--------------|---------------|----------|---------*|
|-5-----7----7-|-8-------------|-3--------|---------*|
|--------------|---------------|----------|---------*|

            
            
Suggest correction
Creating personal tab
Creating personal tab
You can edit any tab online and save it as your Personal.

You can edit, replace or remove any tab part or add personal notes – all changes will be seen only by you.

Personal tabs can be accessed anytime from any device, even offline.
Learn more »
Give kudos to tab author, rate the tab!
1 2 3 4 5
comments
print report bad tab
guest
You may want to rate the tab now too:
select rating
Wanna post a correction for this tab? Suggest correction