Oops, an error
Loading. Please wait.

We Didnt Start The Fire intro tab

version 1
version 1

Intro

Whole song

Interactive

8,773 views 9 this week
2 commentsread comments
1 2 3 4 5
x 9
add to favorites
×
Save as Personal and add changes to this tab that will be seen only by you. Learn more ›
×
You can save this tab as Personal to edit and correct it or add notes. All changes will be seen only by you. Learn more »
launch autoscroll
font size
0
reset
how to read this tab
guitar tuner
backing track
0:00
0:00
edit
Autoscroll
slow
fast
+/-
esc
set tempo
stop
Author
The intro is the hole song for the electric guitar


----------------------------------------------------------------------------
                   We Didnt Start The Fire - Billy Joel
----------------------------------------------------------------------------


Tabbed by:Aussie101


e|--------------------------------------------------------------------------|
B|------------12--------12----------12--------------------------------------|
G|--------1214------1214--1412--1214--1412------Repeat over and over again--|
D|12121214--------14----------14----------14--------------------------------|
A|--------------------------------------------------------------------------|
E|--------------------------------------------------------------------------|

Please Rate Thank you
Suggest correction
Creating personal tab
Creating personal tab
You can edit any tab online and save it as your Personal.

You can edit, replace or remove any tab part or add personal notes – all changes will be seen only by you.

Personal tabs can be accessed anytime from any device, even offline.
Learn more »
comments
print report bad tab
2 comments total.
0 reply
krushna 26 Mar 25, 2009 03:54 AM

E---------------------------------------------
A--------8-10-12---8-10-12-10-8---8-10-12-10-8
D--7-7\9---------9--------------9-------------
G---------------------------------------------
B---------------------------------------------
E---------------------------------------------

-1 reply
shahayaan2003 10 Dec 15, 2015 04:09 AM

r rv rvrvrv r r r r er rf rf rf fvf rf frb h gf d vx bcs gfxcvfdvgf f

guest
You may want to rate the tab now too:
select rating
Wanna post a correction for this tab? Suggest correction