Oops, an error
Loading. Please wait.

Love Really Hurts Without You Bass Tab

version 1
version 1

Whole song

4,093 views 6 this week
no commentswrite comment
1 2 3 4 5
excellent!
x 3
add to favorites
launch autoscroll
font size
0
reset
guitar tuner
Tab Pro tools
  • play this tab
  • loop segment
  • change instrument
  • show fretboard
  • metronome
×
Best way to learn
"Love Really Hurts Without You"
Autoscroll
slow
fast
+/-
esc
set tempo
stop
Contributor
Difficulty
novice
-------------------------------------------------------------------------------
			     LOVE REALLY HURTS WITHOUT YOU - Billy Ocean
-------------------------------------------------------------------------------

Tabbed By : WibbleWobble
e-mail: organisedchaos@talktalk.net

Tuning: Standard EADG

Fabulous smash hit from February 1976 very upbeat tempo

INTRO (play x 4)

G|---------------------------------------------------------------------------|
D|-3----3-----3-----3-----2-3------------------------------------------------|
A|--3-5---3-5---3-5---3-5----------------------------------------------------|
E|---------------------------------------------------------------------------|

FIRST VERSE (play this twice)
G|-----------------------------5----5-----5-----5-----5--3----3----3----3----|
D|-3----3-3----3-----3-----2-3--5-7---5-7---5-7---5-7-----3-5--3-5--3-5------|
A|--3-5----3-5---3-5---3-5---------------------------------------------------|
E|---------------------------------------------------------------------------|

G|-2-2-2-2-5-5-5-5-----------------------5----5-----5-----5----5-3-----3-----|
D|-----------------3---3----3-----3----3--5-7---5-7---5-7--5-7-----3-5--3-5--|
A|------------------3-5--3-5--3-5--3-5---------------------------------------|
E|---------------------------------------------------------------------------|


G|3----3----------------5-5-5-5----------------------------------------------|
D|-3-5---3-5----5-5-5-5------------------------------------------------------|
A|---------------------------------------------------------------------------|
E|---------------------------------------------------------------------------|

 REPEAT INTRO x 4
 REPEAT VERSE x 2
 Then: 

G|-----------------------------------------------------7----7----7----7--9-7|
D|-3----3-----3-----3------3-5-----5-----5-----5-----5--7-9--7-9---7-9-------|
A|--3-5---3-5---3-5---3-5------5-7---5-7---5-7---5-7-------------------------|
E|---------------------------------------------------------------------------|



G|-5----5----5-----5-4-4-4-4-7-7-7-7-----------------------------------------|
D|--5-7--5-7---5-7-----------------------------------------------------------|
A|---------------------------------------------------------------------------|
E|---------------------------------------------------------------------------|

PLAY OUT

G|--------------------------7-----7----7----7-----7-5----5-----5-----5-----5-|
D|-5----5-----5-----5-----5---7-9--7-9--7-9---7-9----5-7---5-7---5-7---5-7---|
A|--5-7---5-7---5-7---5-7----------------------------------------------------|
E|---------------------------------------------------------------------------|

G|-4-4-4-4-7-7-7-7-----------------------------------------------------------|
D|---------------------------------------------------------------------------|
A|---------------------------------------------------------------------------|
E|---------------------------------------------------------------------------|

comments
We did not receive enough feedback on this tab! Please rate:
print report bad tab
1 2 3 4 5
I want to post or [tab]
guest
You may want to rate the tab now too:
select rating
Please do not post tabs as comments. Select "correction" instead!