Oops, an error
Loading. Please wait.

Red Light Spells Danger Bass Tab

version 2
version 2

Whole song

5,308 views 9 this week
no commentswrite comment
1 2 3 4 5
excellent!
x 3
add to favorites
launch autoscroll
font size
0
reset
guitar tuner
Tab Pro tools
  • play this tab
  • loop segment
  • change instrument
  • show fretboard
  • metronome
Autoscroll
slow
fast
+/-
esc
set tempo
stop
Contributor
Difficulty
intermediate
Tabbed by:- vampirepeaches

Artist:- Billy Ocean
Song:- Red Light Spells Danger
First tab, lots of effort went into it, after being unable to find an accurate
one, or even a free midi. Note that each "-" equals one quaver.

Intro - x5 until 0.59
G|----------------------------------------------------------------|
D|----------------------------------------------------------------|
A|--------------------------------77-777-777-777-7----------------|
E|99-999-999-999-9554555-555-55545----------------77-777-777-77788|

Bridge - x2 until 1.11
G|--------------------------------|
D|--------------------------------|
A|--447744--447744--669966--669966|
E|55------55------77------77------|

Chorus - x2 until 1.34
G|----------------------------------------------------------------|
D|----------------------------------------------------------------|
A|7—-77-—77—-77—-7----------------77-777-777-777-7----------------|
E|----------------5—-55—-55-—55-45----------------77-777-777-77788|

Interlude - x5 until 2.31
G|----------------------------------------------------------------|
D|----------------------------------------------------------------|
A|--------------------------------77-777-777-777-7----------------|
E|99-999-999-999-955-555-555-55545----------------77-777-777-77788|

Bridge - x2 until 2.43
G|--------------------------------|
D|--------------------------------|
A|--447744--447744--669966--669966|
E|55------55------77------77------|

Chorus - x4, then fade out to end
G|----------------------------------------------------------------|
D|----------------------------------------------------------------|
A|7—-77-—77—-77—-7----------------77-777-777-777-7----------------|
E|----------------5—-55—-55-—55-45----------------77-777-777-77788|
comments
We did not receive enough feedback on this tab! Please rate:
print report bad tab
1 2 3 4 5
I want to post or [tab]
guest
You may want to rate the tab now too:
select rating
Please do not post tabs as comments. Select "correction" instead!