Oops, an error
Loading. Please wait.

Red Light Spells Danger Bass Tab

version 3
version 3

Whole song

1,112 views 1 this week
no commentswrite comment
1 2 3 4 5
please rate
add to favorites
launch autoscroll
font size
0
reset
guitar tuner
Tab Pro tools
  • play this tab
  • loop segment
  • change instrument
  • show fretboard
  • metronome
×
Best way to learn
"Red Light Spells Danger"
Autoscroll
slow
fast
+/-
esc
set tempo
stop
Difficulty
intermediate
Red Light Spells Danger

Tabbed by bass50611

Intro & Verse (1st line x3  2nd line x2)
G-----------------------------------------------------------------|
D---------------11--------------7-------6---9-6-------------------|
A------6---11-6---------4---7-4-----7-7---7-----7------6---7-6----|
E--9-9---9----------5-5---5------------------------7-7---7-----7--|

G-----------------------------------------------------------------|
D-----------------------------------------------------------------|
A---------------------------------777-777-777-777-----------------|
E--999-999-999-999-555-555-555-555---------------777-777-777-777--|

Bridge (x2):
G-------------------------------------|
D-------------------------------------|
A-------------------------------------|
E--555-555-555-555---777-777-777-777--|

Chorus:
G-----------------------------------------------------------------|
D-----------------------------------------------------------------|
A--777-777-777-777-----------------777-777-777-777----------------|
E------------------555-555-555-555----------------777-777-777-777-|
								
G-------------------------------------------------------------------|
D-------------------------------------------------------------------|
A--777-777-777-777---------------777-777-777-777--------------------|
E-----------------555-555-555-555---------------777-777-777-777-8-9-|


Repeat Verse,Bridge & 1st Line of Chorus to Fade
comments
We did not receive enough feedback on this tab! Please rate:
print report bad tab
1 2 3 4 5
I want to post or [tab]
guest
You may want to rate the tab now too:
select rating
Please do not post tabs as comments. Select "correction" instead!