Oops, an error
Loading. Please wait.

Hey Elvis Chords

1,148 views 1 this week
no commentswrite comment
1 2 3 4 5
please rate
add to favorites
launch autoscroll
font size
0
reset
transpose
0
reset
display chords
guitar tuner
Tab Pro tools
  • play this tab
  • loop segment
  • change instrument
  • show fretboard
  • metronome
×
Best way to learn
"Hey Elvis"
Autoscroll
slow
fast
+/-
esc
set tempo
stop
Contributor
Intro: D


e|----------------13-10-----10-10--------------------------------------------|
B|-----------10---13----13--10-10--------------------------------------------|
G|-----------10--------------------------------------------------------------|
D|--12p10--------------------------------------------------------------------|
A|--------12-----------------------------------------------------------------|
E|---------------------------------------------------------------------------|

e|---------------------------------------------------------------------------|
B|-10br-----------------10~-10~-10~------------------------------------------|
G|-10br--10br~----------10~-10~-10~-10b 10-----------------------------------|
D|-------------10-10h12---------------------12p10-10h12~---------------------|
A|---------------------------------------------------------------------------|
E|---------------------------------------------------------------------------|  

D
Hey Elvis, won't cha come back home
                          A
I left a message on your Code - A - Phone
D                          G              D
I tried to reach ya but I can't get through
N.C                                D
Hey Elvis, where the hell are you


D
Somebody saw you at the shopping mall
                                A
Somebody said they heard that southern drawl
D                  G
Hey Elvis, is it really true
D                        A         D
We're all waitin' for a sign from you


G                           D
Everybody knows about your pink Cadillac
A                                  D
Everybody's wonderin' when your comin' back
G                            D
Everybody's waitin' just to hear ya sing
          A                   D
Hey Elvis, you're still the King


Hey Elvis, won't cha' come back soon
Nobody's rockin' in the Jungle Room
Come December don't know what we'll do
Be a blue Christmas without you

Everybody knows about your pink Cadillac
Everybody's wonderin' when your comin' back
Everybody's waitin' just to hear ya sing
Hey Elvis, you're still the King

 Instrumental 

G G G

D           G G G D             G G G
Love me Tender - Don't be cruel
D            G G G D            G G G
Return to sender - Stuck on you
D             G G G D               G G G D
It's now or never - Suspicious Minds
N.C                             A
Hey Elvis, aren't ya lonesome tonight


Hey Elvis. can't ya see
They need you back in Memphis, Tennesee
They're makin' records but there's nothing new
Nobody ever done it quite like you

Everybody knows about your pink Cadillac
Everybody's wonderin' when your comin' back
Everybody's waitin' just to hear ya sing
Hey Elvis,

Everybody knows about your "Lisa Marie"
Everybody knows about PCB
Everybody's waitin' just to hear you sing
Hey Elvis, you're still the King

Come back to Memphis, Elvis
You're still the King...
comments
We did not receive enough feedback on this tab! Please rate:
print report bad tab
1 2 3 4 5
I want to post or [tab]
guest
You may want to rate the tab now too:
select rating
Please do not post tabs as comments. Select "correction" instead!