Oops, an error
Loading. Please wait.

Everybody Wants You bass

version 2
version 2

Whole song

Interactive

547 views 3 this week
1 commentread comment
1 2 3 4 5
1 last vote to show rating
add to favorites
×
Save as Personal and add changes to this tab that will be seen only by you. Learn more ›
×
You can save this tab as Personal to edit and correct it or add notes. All changes will be seen only by you. Learn more »
launch autoscroll
font size
0
reset
guitar tuner
backing track
0:00
0:00
edit
Autoscroll
slow
fast
+/-
esc
set tempo
stop
Author
Difficulty
Billy Squier
Everybody Wants You
Tuning: standard (EADG)
tabbed by: ivanvector

This is my first tab! Based on some others for this song floating around the web, they
all don't sound quite right and are missing some fills and runs. Improvements welcome!

Intro:
G:--------------------------------|-------------------------------------|
D:--------------------------------|-------------------------------------|
A:-------------------3------------|-------------------3-------8h10-8h10-|
E:-5-5-x-3-5-5-x-3-5---5-3-5-5-x-3|-5-5-x-3-5-5-x-3-5---5-3-5-----------|

Verse:
G:--------------------------------|--------------------------------|
D:--------------------------------|--------------------------------|
A:-5-5-5-5-5-5-5-5-5-5-5-5-5------|-5-5-5-5-5-5-5-5-x--------------|
E:---------------------------5-8-5|--------------------------------|
                                                    (guitar fill)

G:--------------------------------|-------------------------------------|
D:--------------------------------|-------------------------------------|
A:-------------------3------------|-------------------3-------8h10-8h10-|
E:-5-5-x-3-5-5-x-3-5---5-3-5-5-x-3|-5-5-x-3-5-5-x-3-5---5-3-5-----------|
                                   
G:--------------------------------|--------------------------------|
D:--------------------------------|--------------------------------|
A:-5-5-5-5-5-5-5-5-5-5-5-5-5------|-5-5-5-5-5-5-5-5-x--------------|
E:---------------------------5-8-5|--------------------------------|
                                                    (guitar fill)

G:--------------------------------|--------------------------------|
D:--------------------------------|--------------------------------|
A:-------------------3------------|-------------------3------------|
E:-5-5-x-3-5-5-x-3-5---5-3-5-5-x-3|-5-5-x-3-5-5-x-3-5---5-3-5-3~~~~|

Chorus:
G:--------------------------------|--------------------------------|
D:--------------------------------|---------5-5--------------------|
A:-7-7-7-7-7-7-7-7-----7---7-7-7-7|-----5-7-----7-5----------------|
E:-----------------7-9---9--------|-5-5-------------5-5-5-5-5-3~~~~|

G:--------------------------------|--------------------------------|
D:--------------------------------|--------------------------------|
A:-7-7-7-7-7-7-7-7-----7---7-7-7-7|---------5-5-5-5-x--------------|
E:-----------------7-9---9--------|-5-5-5-7------------------------|
                                                    "everybody wants you"

Bridge:
G:--------------------------------|--------------------------------|
D:--------------------------------|--------------------------------|
A:-5-5-5-5-5-5-5-5-5-3---3---2-0--|-5-5-5-5-5-5-5-5-5-3---3---2-0--|
E:-------------------------------3|-------------------------------3|

G:--------------------------------|--------------------------------|
D:--------------------------------|--------------------------------|
A:-5-5-5-5-5-5-5-5-5-3---3---2-0--|-5-5-5-5-5-5-5-5-5-5-5-5--5--5--|
E:-------------------------------3|--------------------------------|

G:--------------------------------|--------------------------------|
D:--------------------------------|--------------------------------|
A:-7-7-7-7-7-7-7-7-7-7-7-7-7-7-7-7|-7-7-7-7-7-7-7-7-7-x------------|
E:--------------------------------|--------------------------------|
                                                      (guitar bend)

Listen to song for rhythm and order of parts. This is roughly it:

(guitar plays through intro once)
Intro
Verse
Chorus
Intro
Verse
Chorus
Intro **
Bridge
Intro **
Intro (slightly faster tempo)
Verse
Chorus
Intro (repeat to end)

**On intros before and after bridge, repeat A-G-A-A pattern instead
  of playing the hammer-ons. Listen to the song for the pattern.

Lyrics provided by Ultimate Guitar:

(intro)

(verse)
You see 'em comin' at you every night
Strung on pretension, they fall for you at first sight
You know their business, you think it's a bore
They make you restless, it's nothin' you ain't seen before

(chorus)
Get around town, spend your time on the run
You never let down, say you do it for fun
Never miss a play, though you make quite a few
You give it all away - everybody wants you

(intro)
(verse)
You crave attention, you can never say "no"
Throw your affections any way the wind blows
You always make it, you're on top of the scene
You sell the copy like the cover of a magazine

(chorus)
Puttin' on the eyes 'til there's nobody else
You never realize what you do to yourself
The things that they see make the daily reviews
You never get free - everybody wants you

(intro**)
(bridge)
Everybody knows you
Everybody snows you
Everybody needs you, leads you, bleeds you

(intro**)
(intro)
(verse)
Nights of confusion and impossible dreams
Days at the mirror, patchin' up around the seams
You got your glory, you paid for it all
You take your pension in loneliness and alcohol

(chorus)
Say goodbye to conventional ways
You can't escape the hours, you lose track of the days
The more you understand, seems the more like you do
You never get away - everybody wants you

(intro to end)

            
            
Suggest correction
Creating personal tab
Creating personal tab
You can edit any tab online and save it as your Personal.

You can edit, replace or remove any tab part or add personal notes – all changes will be seen only by you.

Personal tabs can be accessed anytime from any device, even offline.
Learn more »
Give kudos to tab author, rate the tab!
1 2 3 4 5
comments
print report bad tab
1 comment total.
0 reply
52bass 10 Feb 05, 2017 07:06 PM

Good job, thanks!

guest
You may want to rate the tab now too:
select rating
Wanna post a correction for this tab? Suggest correction