Oops, an error
Loading. Please wait.

Lonely Is The Night bass

version 1
version 1

Whole song

Interactive

12,952 views 12 this week
2 commentsread comments
1 2 3 4 5
x 6
add to favorites
×
Save as Personal and add changes to this tab that will be seen only by you. Learn more ›
×
You can save this tab as Personal to edit and correct it or add notes. All changes will be seen only by you. Learn more »
launch autoscroll
font size
0
reset
guitar tuner
backing track
0:00
0:00
edit
Autoscroll
slow
fast
+/-
esc
set tempo
stop
Author
Difficulty
Great bass tune by Billy and Co.

Tabbed by: BASSteve

Tuning: EADG

Time signature: 4/4

r = rest (listen for duration)
h = hammer on
/ = slide (low to high)
\ = slide (high to low)
()= note inside parenthesis not plucked or hammered on
||= measure gets repeated (see number of times above measure, e.g. 4x)


*My tabs are meant to be read in conjunction with listening to the song.
In other words, there are no specific notations to account for note/rest duration. 
However, you will find that I've made an attempt to strategically space the notes 
and rests within their respective measures in order to represent the appropriate 
durations.


  
GUITAR / VOCAL  INTRO



 VERSE 1

   2x
G||--------------------------------|--------------------------------|
D||--------------------------------|--------------------------------|
A||7-----7-5---5-7\--------r-------|7-----7-5---5-0-----5-r-5-0---r-|
E||--------------------------------|--------------------------------|



|--------------------------------|--------------------------------------||
|--------------------------------|--------------------12-11----12-11----||
|7-----7-5---5-7\--------r-------|7-----7-5---5-0-----------12-------12-||
|--------------------------------|--------------------------------------||


  2x
||--------------------------------|--------------------------------||
||--------------------------------|--------------------------------||
||7-----7-5---5-7\--------r-------|7-----7-5---5-0-----5-r-5-0---r-||
||--------------------------------|--------------------------------||



CHORUS 1

 "Red lights, green lights ..."
|--------------------------------|--------------------------------|
|--------------------------------|--------------------------9-----|
|2-------2-------0-------0-------|2--(2)/-9---7-------7-r-7-------|
|--------------------------------|--------------------------------|


                 
|----------------------------------|--------------------------------|
|----------------------------------|------------------------9-------|
|2-------2/------12-------12\------|2--(2)/-9---7-------7-----7-----|
|----------------------------------|----------------------7---------|



|----------------------------------|--------------------------------|
|----------------------------------|--------------------------------|
|5-------5/------17-------17\------|5-----5-0-----------------3-----|
|----------------------------------|------------3------3h5--5-------|



|---------------------------------/|19-------------------------------|
|----------------12-------12-------|---------------------------------|
|5-------5/------------------------|-------5-0-----------------------|
|----------------------------------|-------------3-----------3-3-----|



                                   GUITAR / BASS  RE-INTRO 
                                                      
                                   2x               
|--------------------------------||--------------------------------||
|--------------------------------||--------------------------------||
|--------------------------------||--------------------------------||
|0-------------------------------||r-------------------------------||



|--------------------------------|--------------------------------------|
|--------------------------------|--------------------12-11----12-11----|
|--------------------------------|--------------------------12-------12-|
|r-------------------------------|--------------------------------------|



VERSE 2

|--------------------------------|--------------------------------|
|--------------------------------|--------------------------------|
|7-----7-5---5-7\--------r-------|7-----7-5---5-0-----5-r-5-0---r-|
|--------------------------------|--------------------------------|



|--------------------------------|--------------------------------------|
|--------------------------------|--------------------12-11----12-11----|
|7-----7-5---5-7\--------r-------|7-----7-5---5-0-----------12-------12-|
|--------------------------------|--------------------------------------|


  2x
||--------------------------------|--------------------------------||
||--------------------------------|--------------------------------||
||7-----7-5---5-7\--------r-------|7-----7-5---5-0-----5-r-5-0---r-||
||--------------------------------|--------------------------------||



CHORUS 2

 "Slow down, show-down ..."
|-----------------------------------|--------------------------------|
|-----------------------------------|--------------------------9-----|
|2-------2/------12-12-----12-------|2--(2)/-9---7-------7-r-7-------|
|-----------------------------------|--------------------------------|


                 
|----------------------------------|--------------------------------|
|----------------------------------|--------------------------9-r---|
|2-------2/------12-------12\------|2--(2)/-9---7-------7---7-------|
|----------------------------------|----------------------7---------|



|----------------------------------|--------------------------------|
|----------------------------------|--------------------------------|
|5-------5/------17-------17\------|5-----5-0-----------------3-----|
|----------------------------------|------------3------3h5--5-------|



|---------------------------------/|19-------------------------------|
|----------------12-------12-------|---------------------------------|
|5-------5/------------------------|-------7-0-----------------------|
|----------------------------------|-------------3-----------3-3-----|



|--------------------------------|--------------------------------|
|--------------------------------|--------------------------------|
|--------------------------------|--------------------------------|
|0-------------------------------|----------------------------r---|



INTERLUDE
 
 "Somebody's watchin' you baby ..."

  4x
||--------------------------------|-------------------------------------||
||--------------------------------|-------------------------------------||
||--------------------------------|19---------------19-19---19-19-r-----||
||0-----------------------(0)/----|-------------------------------------||



GUITAR SOLO

|--------------------------------|--------------------------------|
|--------------------------------|--------------5-----------------|
|5-7-r-5-7-----------7-5---------|5-7-r-5-7-------5-----5-0-------|
|------------------------7-5-----|--------------------------------|



|--------------------------------|----------------7-----7---------|
|--------------------------------|--------------5---------7-------|
|5-7-r-5-7-----------------------|5-7-r-5-7-----------------------|
|----------------0-2-3-r-3/5-----|--------------------------------|



|--------------------------------|--------------------------------|
|--------------------------------|--------------5-----------------|
|5-7-r-5-7\----------------------|5-7-r-5-7-------5-----5-0-------|
|--------------------0-r-3/5-----|--------------------------------|



|--------------------------------|--------------------------------|
|--------------------------------|--------------5-----------------|
|5-7-r-5-7-----------------------|5-7-r-5-7-------5---5-5-0-------|
|--------------------0-r-0-5-----|--------------------------------|



CHORUS 3

 "No more sleepin' ..."
|-----------------------------------|--------------------------------|
|-----------------------------------|-------------------/9-r-9-------|
|2-------2/------12-----------------|2--(2)/-9---7-------------7\----|
|-----------------------------------|--------------------------------|


                 
|--------------------------------|--------------------------------|
|--------------------------------|--------------------------------|
|2-------2-------0-------0-------|2--(2)/-9---7-------7-r-7-9-----|
|--------------------------------|--------------------------------|



|----------------------------------|--------------------------------|
|----------------------------------|--------------------------------|
|5-------5/------17-------17\------|5-----5-0-----------------3-----|
|----------------------------------|------------3------3h5--5-------|



|---------------------------------/|19-------------------------------|
|----------------12-------12-------|---------------------------------|
|5-------5/------------------------|-------7-0-----------------------|
|----------------------------------|-------------3-----------3-3-----|



                                  OUTRO

|--------------------------------|--------------------------------|
|--------------------------------|--------------------------------|
|--------------------------------|--------------------------------|
|0-------------------------------|r-----------------0-0-0-0-r-----|



|--------------------------------|--------------------------------|
|--------------------------------|--------------------------------|
|--------------------------------|7-r-----------------------------|
|--------------------------------|--------------------------------|


                                   to fade
|--------------------------------||--------------------------------|
|--------------------------------||--------------------------------|
|7-r-7-5-r-5-0-----0-r-5-3-0-0---||7-7-7-5-5-5-7-7-7-7-5-5-7-5-0-5-|
|--------------------------------||--------------------------------|



|--------------------------------||--------------------------------|
|--------------------------------||--------------------------------|
|7-7-7-5-r-5-0-----0-5-r-3-0-0---||--------------------------------|
|--------------------------------||--------------------------------|

     
                 (PLEASE RATE THIS TAB / LEAVE COMMENT)


            
            
Suggest correction
Creating personal tab
Creating personal tab
You can edit any tab online and save it as your Personal.

You can edit, replace or remove any tab part or add personal notes – all changes will be seen only by you.

Personal tabs can be accessed anytime from any device, even offline.
Learn more »
comments
print report bad tab
2 comments total.
0 reply
Growlnutz 195 Nov 25, 2012 06:37 PM

Thanks for the bass tab. This is a great song. I play the guitar and could never find a good tab for this song so I decided to put together a GuitarPro tab with all the instruments including the bass. I used your tab. I only found one mistake. The little bass run in the verses is 12(D)-11(Db); not 12(D)-10(C). I should have my file up within the next month or so. Check it out and rate if you get a chance. Thanks again.
Growlnutz

0 reply
BASSteve 1,328 Nov 30, 2012 03:42 PM

Yes, you are right. A typo that I repeated throughout. Thanks - will change.

guest
You may want to rate the tab now too:
select rating
Wanna post a correction for this tab? Suggest correction