Oops, an error
Loading. Please wait.

A Passage To Bangkok tab

508 views 1 this week
no commentswrite comment
1 2 3 4 5
1 last vote to show rating
add to favorites
×
Save as Personal and add changes to this tab that will be seen only by you. Learn more ›
×
You can save this tab as Personal to edit and correct it or add notes. All changes will be seen only by you. Learn more »
launch autoscroll
font size
0
reset
how to read this tab
guitar tuner
edit
Autoscroll
slow
fast
+/-
esc
set tempo
stop
Author
Difficulty
Artist: Billy Talent
Song:   A Passage To Bangkok (Original by Rush)

standard tuning

Tabbed by Jasper Vellekoop

Good Luck!
===================================

[Main Riff / Verse 1]
e |--------------------|------------------------|
B |--------------------|------------------------|
G |--------------------|------------------------|
D |--------------------|------------------------|
A |-----7---5---7/-2-2-|-----3---2---3p2--------|
E |-0-0---0---0--------|-0-0---0---0-----3-3----| 6x

The next part kicks in a little later. 
[Verse 1: Lead part]
e |--------------------------------------------|
B |--------------------------------------------|
G |----12---11--12---------9----8---9p8--------|
D |----------------13--------------------9-----|
A |--------------------------------------------|
E |--------------------------------------------| 2x 

[Pre-Chorus]
e |--------------------|------------------------|
B |--------------------|------------------------|
G |-----9---7---9/-4-4-|-----5---3---5/4--------|
D |-----9---7---9/-4-4-|-----5---3---5/4-5-5----|
A |-----7---5---7/-2-2-|-----3---2---3/2-5-5----|
E |-0-0---0---0--------|-0-0---0---0-----3-3----| 2x


[Pre-Chorus: Lead part]
e |---------------------------|
B |---7-0-7-0-7-0-0---7--8-8--|
G |---------------------------|
D |---------------------------|
A |---------------------------|
E |---------------------------| 2x 

[Chorus]
e |--------------------------|--------------------------------------------------------------|
B |--7-7--5--12--10---7-7----|--------------------------------------------------------------|
G |--7-7--5--12--11---7-7----|--12--11-12--11-7---------------------------------------------|
D |--7-7--5--12--11---7-7----|--12--11-12--11-7---7-7-7-7-11-11-11-11-12-12-12-14-14-14-14--|
A |--5-5--3--10---9---5-5----|--10---9-10---9-5---7-7-7-7-11-11-11-11-12-12-12-14-14-14-14--|
E |--------------------------|--------------------5-5-5-5--9-9-9-9-10-10-10-10-12-12-12-12--|

e |---------------8--8----------|------------------------------------------------------------|
B |--7-7--5--12---8--8---7---7--|------------------------------------------------------------|
G |--7-7--5--12---9--9---7---7--|--12--11-12--11--7--14--------------------------------------|
D |--7-7--5--12--10-10---7---7--|--12--11-12--11--7--14--------------------------------------|
A |--5-5--3--10--10-10---5---5--|--10---9-10---9--5--12--------------------------------------|
E |---------------8--8----------|------------------------------------------------------------|

[Verse 2]
e |--------------------|------------------------|
B |--------------------|------------------------|
G |--------------------|------------------------|
D |--------------------|------------------------|
A |-----7---5---7/-2-2-|-----3---2---3p2--------|
E |-0-0---0---0--------|-0-0---0---0-----3-3----| 6x


[Verse 2: Lead]
e |--------------------------------------------|
B |--------------------------------------------|
G |----12---11--12---------9----8---9p8--------|
D |----------------13--------------------9-----|
A |--------------------------------------------|
E |--------------------------------------------| 2x 


[Pre-Chorus]
e |--------------------|------------------------|
B |--------------------|------------------------|
G |-----9---7---9/-4-4-|-----5---3---5/4--------|
D |-----9---7---9/-4-4-|-----5---3---5/4-5-5----|
A |-----7---5---7/-2-2-|-----3---2---3/2-5-5----|
E |-0-0---0---0--------|-0-0---0---0-----3-3----| 2x

[Pre-Chorus: Lead]
e |---------------------------|
B |---7-0-7-0-7-0-0---7--8-8--|
G |---------------------------|
D |---------------------------|
A |---------------------------|
E |---------------------------| 2x 

[Chorus]
e |--------------------------|--------------------------------------------------------------|
B |--7-7--5--12--10---7-7----|--------------------------------------------------------------|
G |--7-7--5--12--11---7-7----|--12--11-12--11-7---------------------------------------------|
D |--7-7--5--12--11---7-7----|--12--11-12--11-7---7-7-7-7-11-11-11-11-12-12-12-14-14-14-14--|
A |--5-5--3--10---9---5-5----|--10---9-10---9-5---7-7-7-7-11-11-11-11-12-12-12-14-14-14-14--|
E |--------------------------|--------------------5-5-5-5--9-9-9-9-10-10-10-10-12-12-12-12--|

e |---------------8--8----------|------------------------------------------------------------|
B |--7-7--5--12---8--8---7---7--|------------------------------------------------------------|
G |--7-7--5--12---9--9---7---7--|--12--11-12--11--7--14--------------------------------------|
D |--7-7--5--12--10-10---7---7--|--12--11-12--11--7--14--------------------------------------|
A |--5-5--3--10--10-10---5---5--|--10---9-10---9--5--12--------------------------------------|
E |---------------8--8----------|------------------------------------------------------------|


[Solo]
e |---------------------|-------------------5/7~----|
B |----7----------------|---0h3p0h3p0h3p0-----------|
G |----9b11r9-7-9-7-----|---------------------------|
D |-----------------9---|---------------------------|
A |---------------------|---------------------------|
E |---------------------|---------------------------|

e |---7/10-12--10-----------------|---9p7----7------------|
B |---------------12-10--12b14r12-|-------10---10b(12)----|
G |-------------------------------|-----------------------|
D |-------------------------------|-----------------------|
A |-------------------------------|-----------------------|
E |-------------------------------|-----------------------|

e |-----------------------------|----------------------|
B |---12-10---------------------|----------------------|
G |---------11-9-11-9b(11)---9~-|----9h11-9----9b11r9--|
D |-----------------------------|-----------12---------|
A |-----------------------------|----------------------|
E |-----------------------------|----------------------|

e |---------------------|------------------|
B |---------------------|------------------|
G |---9-8-7-------------|------------------|
D |---------9-8-7-------|------------------|
A |---------------9-8-7-|------------------|
E |---------------------|-10-9--10-9-7-7---|

e |-----------------------------------------|
B |-----------------------------------------|
G |-----------------------------------------|
D |--9---9-9--------------------------------|
A |--9---9-9--------------------------------|
E |--7---7-7-7-7-9-9-9~----10-9-7-10~--10~--|

e |-----------------------|------------------------------|
B |-----------------------|------------------------------|
G |-----------------------|------------------------------|
D |-----------------------|---------------------7h9-9-9--|
A |-----------------------|-5h7-7-7---7h9-9-9------------|
E |- 10~--10~--7--7h9-9-9-|------------------------------|

e |-------------------------------------------------------|
B |-----------------7--------------------7--------7-------|
G |----------7h9----9b(11)---------------9b(11)---9b(11)--|
D |------7h9----------------------------------------------|
A |--7h9--------------------------------------------------|
E |-------------------------------------------------------|

e |---7------------------|-------------------|
B |-----10--7-10-7-------|-------------------|
G |----------------9-7-9-|-6---6--7-9-7-6----|
D |----------------------|---7------------7--|
A |----------------------|-------------------|
E |----------------------|-------------------|

e |----------------10------|--10------------------|
B |--10h12---------13b(15)-|--13b(15)----12-10-12-|
G |------------------------|----------------------|
D |------------------------|----------------------|
A |------------------------|----------------------|
E |------------------------|----------------------|

e |---------7----------------------------|
B |-----------10-7---7-------------------|
G |--9b(11)--------9---9-7-9-7-----------|
D |-----------------------------9-7-9----|
A |--------------------------------------|
E |--------------------------------------|

e |------------------------------|-----------------------------|
B |-----7------7----------7------|-7------------7------7-------|
G |-----9b(11)-9b(11)-----9b(11)-|-9b(11)-------9b(11)-9b(11)--|
D |------------------------------|-----------------------------|
A |------------------------------|-----------------------------|
E |------------------------------|-----------------------------|

e |---------------14-------17--14-------17--|----14--------17------14----------------|
B |------15-17----17b(19)------17b(19)------|----17b(19)-----------17b(19)r17--15----|
G |---16------------------------------------|----------------------------------------|
D |-----------------------------------------|----------------------------------------|
A |-----------------------------------------|----------------------------------------|
E |-----------------------------------------|----------------------------------------|

e |-----17b19r17p15-14-------|-----------------------------|
B |--------------------17-15-|-14h15p14--------------------|
G |--------------------------|-----------16-14-------------|
D |--------------------------|------------------17-16-14---|
A |--------------------------|-----------------------------|
E |--------------------------|-----------------------------|

e |----------------------------|--------------------------|
B |----------------------------|--------------------------|
G |---16p14----14--------------|--------------------------|
D |---------16----16-14--------|---------------12---------|
A |---------------------17-14--|---------------12---------|
E |----------------------------|-------12h14---10---------|

[Chorus]
e |--------------------------|--------------------------------------------------------------|
B |--7-7--5--12--10---7-7----|--------------------------------------------------------------|
G |--7-7--5--12--11---7-7----|--12--11-12--11-7---------------------------------------------|
D |--7-7--5--12--11---7-7----|--12--11-12--11-7---7-7-7-7-11-11-11-11-12-12-12-14-14-14-14--|
A |--5-5--3--10---9---5-5----|--10---9-10---9-5---7-7-7-7-11-11-11-11-12-12-12-14-14-14-14--|
E |--------------------------|--------------------5-5-5-5--9-9-9-9-10-10-10-10-12-12-12-12--|

e |---------------8--8----------|------------------------------------------------------------|
B |--7-7--5--12---8--8---7---7--|------------------------------------------------------------|
G |--7-7--5--12---9--9---7---7--|--12--11-12--11--7--14--------------------------------------|
D |--7-7--5--12--10-10---7---7--|--12--11-12--11--7--14--------------------------------------|
A |--5-5--3--10--10-10---5---5--|--10---9-10---9--5--12--------------------------------------|
E |---------------8--8----------|------------------------------------------------------------|

The next part is slightly different. 
e |--------------------------|-------------------------------------------------|
B |--7-7--5--12--10---7-7----|-------------------------------------------------|
G |--7-7--5--12--11---7-7----|--12--11-12--11-7--------------------------------|
D |--7-7--5--12--11---7-7----|--12--11-12--11-7--------------------------------|
A |--5-5--3--10---9---5-5----|--10---9-10---9-5---0-0-4-0-5-0-7-0--7-7-10-12---|
E |--------------------------|-------------------------------------------------|

e |---------------8--8----------|------------------------------------------------------------|
B |--7-7--5--12---8--8---7---7--|------------------------------------------------------------|
G |--7-7--5--12---9--9---7---7--|--12--11-12--11--7--14--------------------------------------|
D |--7-7--5--12--10-10---7---7--|--12--11-12--11--7--14--------------------------------------|
A |--5-5--3--10--10-10---5---5--|--10---9-10---9--5--12--------------------------------------|
E |---------------8--8----------|------------------------------------------------------------|

[Outro]
e |---------------------------------|-----------------------------|
B |---------------------------------|-----------------------------|
G |--12--11-12--11-12/14------------|-----------------------------|
D |--12--11-12--11-12/14----12------|-----------------------------|
A |--10---9-10---9-10/12----12------|-----------------------------|
E |-------------------------10------|-----------------------------|


===============================================

~       Vibrato
b       Bend note
r       Release note
/       Slide
h       Hammer on
p       Pull off 

==============================================

            
            
Suggest correction
Creating personal tab
Creating personal tab
You can edit any tab online and save it as your Personal.

You can edit, replace or remove any tab part or add personal notes – all changes will be seen only by you.

Personal tabs can be accessed anytime from any device, even offline.
Learn more »
Give kudos to tab author, rate the tab!
1 2 3 4 5
comments
print report bad tab
guest
You may want to rate the tab now too:
select rating
Wanna post a correction for this tab? Suggest correction