Oops, an error
Loading. Please wait.
We have Chord Pro version of Afraid Of Heights.
It's the closest thing you can get to the original song and it has interactive parts. Check out the tab »
×
2,995 views 9 this week
4 commentsread comments
1 2 3 4 5
x 4
add to favorites
×
Save as Personal and add changes to this tab that will be seen only by you. Learn more ›
×
You can save this tab as Personal to edit and correct it or add notes. All changes will be seen only by you. Learn more »
launch autoscroll
font size
0
reset
how to read this tab
guitar tuner
edit
Autoscroll
slow
fast
+/-
esc
set tempo
stop
[Intro]


e|-3-3-3-3-3-3-3------------3--5--3---3-3-3-3-3-3-3------------0----------------------------|3x
B|-1-1-1-1-1-1-1------------1-----1---1-1-1-1-1-1-1--6-6-6-6---3----------------------------|
G|-2-2-2-2-2-2-2------------2--5--2---2-2-2-2-2-2-2------------2----------------------------|
D|-2-2-2-2-2-2-2------------2--5--2---2-2-2-2-2-2-2--3-3-3-3---0----------------------------|
A|-0-0-0-0-0-0-0---2br3-0---0--3--0---0-0-0-0-0-0-0--3-3-3-3--------------------------------|
E|---------------------------------------------------3-3-3-3--------------------------------|

e|-3-3-3-3-3-3-3------------3--5--3---3-3-3-3-3-3-3------------5----------------------------|1x
B|-1-1-1-1-1-1-1------------1-----1---1-1-1-1-1-1-1--6-6-6-6---5----------------------------|
G|-2-2-2-2-2-2-2------------2--5--2---2-2-2-2-2-2-2------------5----------------------------|
D|-2-2-2-2-2-2-2------------2--5--2---2-2-2-2-2-2-2--3-3-3-3---7----------------------------|
A|-0-0-0-0-0-0-0---2br3-0---0--3--0---0-0-0-0-0-0-0--3-3-3-3--------------------------------|
E|---------------------------------------------------3-3-3-3--------------------------------|



************************************

| br  Bend release

************************************

            
            
Suggest correction
Creating personal tab
Creating personal tab
You can edit any tab online and save it as your Personal.

You can edit, replace or remove any tab part or add personal notes – all changes will be seen only by you.

Personal tabs can be accessed anytime from any device, even offline.
Learn more »
comments
print report bad tab
4 comments total. Showing first comments.
0 reply
mitchell.assen 10 Jul 07, 2016 07:52 PM

This tab is incorrect. This tab is incorrect. This tab is incorrect. This tab is incorrect. This tab is incorrect.

0 reply
aRAGman 269 Jul 13, 2016 05:26 AM

This tab is not correct. From watching live performances it is easy to see how incorrect this tab is, not to mention how wrong it sounds alone.

guest
You may want to rate the tab now too:
select rating
Wanna post a correction for this tab? Suggest correction