Oops, an error
Loading. Please wait.
We have Chord Pro version of Afraid Of Heights.
It's the closest thing you can get to the original song and it has interactive parts. Check out the tab »
×
7,441 views 54 this week
3 commentsread comments
1 2 3 4 5
x 5
add to favorites
×
Save as Personal and add changes to this tab that will be seen only by you. Learn more ›
×
You can save this tab as Personal to edit and correct it or add notes. All changes will be seen only by you. Learn more »
launch autoscroll
font size
0
reset
how to read this tab
guitar tuner
edit
Autoscroll
slow
fast
+/-
esc
set tempo
stop
[Intro]

e|--0-0-0-0-----------0-5-0---0-0-0-0-0-0-0---0-0-0-0--0-------------------------------|
B|--8-8-8-8-----------8-5-8---8-8-8-8-8-8-8---8-8-8-8--3-------------------------------|
G|--9-9-9-9-----------9-5-9---9-9-9-9-9-9-9---7-7-7-7--2-------------------------------|
D|--7-7-7-7-----------7-5-7---0-0-0-0-0-0-0---x-x-x-x----------------------------------|
A|-----------------0--------------------------7-7-7-7----------------------------------|
D|----------9h10p9---------------------------------------------------------------------|(x4)


[Verse 1]

e|--0-----0-----0-----0-0-0-0-0-0-0---0-0-0-0--0---0-----0----0-----0-0--0-0--0-0--0-0-------|
B|--10----8-----5-----8-8-8-8-8-8-8---8-8-8-8--3---10----8----5-----8-8--8-8--8-8--5-5-------|
G|--9-----7-----5-----9-9-9-9-9-9-9---7-7-7-7--2---9-----7----5-----9-9--9-9--7-7--5-5-------|
D|--7-----5-----3-----0-0-0-0-0-0-0---x-x-x-x------7-----5----3-----7-7--0-0--5-5--3-3-------|
A|------------------------------------7-7-7-7------------------------------------------------|
D|-------------------------------------------------------------------------------------------|


[Chorus]

e|--0-0-0-0-0-0-0-0-0-0-0-0-0-0---0-0-0-0-0-0-0-0-0-0-0-0-0-0---------------|
B|--5-5-5-5-6-6-6-6-5-5-5-6-6-6---5-5-5-5-6-6-6-6-5-5-5-6-6-6---------------|
G|--5-5-5-5-5-5-5-5-5-5-5-5-5-5---5-5-5-5-5-5-5-5-5-5-5-5-5-5---------------|
D|--3-3-3-3-3-3-3-3-3-3-3-3-3-3---7-7-7-7-7-7-7-7-7-7-7-7-7-7---------------|
A|--------------------------------------------------------------------------|
D|--------------------------------------------------------------------------|(4x)


[Intro again]

e|--0-0-0-0-----------0-5-0---0-0-0-0-0-0-0---0-0-0-0--0-------------------------------|
B|--8-8-8-8-----------8-5-8---8-8-8-8-8-8-8---8-8-8-8--3-------------------------------|
G|--9-9-9-9-----------9-5-9---9-9-9-9-9-9-9---7-7-7-7--2-------------------------------|
D|--7-7-7-7-----------7-5-7---0-0-0-0-0-0-0---x-x-x-x----------------------------------|
A|-----------------0--------------------------7-7-7-7----------------------------------|
D|----------9h10p9---------------------------------------------------------------------|


[Verse 1]


e|--0-----0-----0-----0-0-0-0-0-0-0---0-0-0-0--0---0-----0----0-----0-0--0-0--0-0--0-0-------|
B|--10----8-----5-----8-8-8-8-8-8-8---8-8-8-8--3---10----8----5-----8-8--8-8--8-8--5-5-------|
G|--9-----7-----5-----9-9-9-9-9-9-9---7-7-7-7--2---9-----7----5-----9-9--9-9--7-7--5-5-------|
D|--7-----5-----3-----0-0-0-0-0-0-0---x-x-x-x------7-----5----3-----7-7--0-0--5-5--3-3-------|
A|------------------------------------7-7-7-7------------------------------------------------|
D|-------------------------------------------------------------------------------------------|


[Chorus]

e|--0-0-0-0-0-0-0-0-0-0-0-0-0-0---0-0-0-0-0-0-0-0-0-0-0-0-0-0---------------|
B|--5-5-5-5-6-6-6-6-5-5-5-6-6-6---5-5-5-5-6-6-6-6-5-5-5-6-6-6---------------|
G|--5-5-5-5-5-5-5-5-5-5-5-5-5-5---5-5-5-5-5-5-5-5-5-5-5-5-5-5---------------|
D|--3-3-3-3-3-3-3-3-3-3-3-3-3-3---7-7-7-7-7-7-7-7-7-7-7-7-7-7---------------|
A|--------------------------------------------------------------------------|
D|--------------------------------------------------------------------------|(4x)


[Solo thing]

e|------------------------------------------------------|
B|------------------------------------------------------|
G|----------------4-5-7-5-5-5--9h12p9-9-10-9------------|
D|--5-7-5-7-5-7-5---------------------------------------|
A|------------------------------------------------------|
D|------------------------------------------------------|(2x)


[Verse 2]

e|---------------------------------------------|
B|---------------------------------------------|
G|---------------------------------------------|
D|--9-9-9-9-9--5-5-5-5-5--3-3-3-3-3--0-0-0-0-0-|
A|--9-9-9-9-9--5-5-5-5-5--3-3-3-3-3--0-0-0-0-0-|
D|--9-9-9-9-9--5-5-5-5-5--3-3-3-3-3--0-0-0-0-0-|

e|------------------------------------------------------------------------|
B|------------------------------------------------------------------------|
G|------------------------------------------------------------------------|
D|-3-3-3-3--3-3-3-3--3-3-3-3--3-3-3-3--9-9-9-9--9-9-9-9--9-9-9-9--9-9-9-9-|
A|-3-3-3-3--3-3-3-3--3-3-3-3--3-3-3-3--9-9-9-9--9-9-9-9--9-9-9-9--9-9-9-9-|
E|-3-3-3-3--3-3-3-3--3-3-3-3--3-3-3-3--9-9-9-9--9-9-9-9--9-9-9-9--9-9-9-9-|
   . . . .  . . . .  . . . .  . . . .  . . . .  . . . .  . . . .  . . . . 

   
[Chorus]

e|--0-0-0-0-0-0-0-0-0-0-0-0-0-0---0-0-0-0-0-0-0-0-0-0-0-0-0-0---------------|
B|--5-5-5-5-6-6-6-6-5-5-5-6-6-6---5-5-5-5-6-6-6-6-5-5-5-6-6-6---------------|
G|--5-5-5-5-5-5-5-5-5-5-5-5-5-5---5-5-5-5-5-5-5-5-5-5-5-5-5-5---------------|
D|--3-3-3-3-3-3-3-3-3-3-3-3-3-3---7-7-7-7-7-7-7-7-7-7-7-7-7-7---------------|
A|--------------------------------------------------------------------------|
D|--------------------------------------------------------------------------|(8x)


[Outro]

e|--0-0-0-0-----------0-5-0---0-0-0-0-0-0-0---0-0-0-0--0-------------------------------|
B|--8-8-8-8-----------8-5-8---8-8-8-8-8-8-8---8-8-8-8--3-------------------------------|
G|--9-9-9-9-----------9-5-9---9-9-9-9-9-9-9---7-7-7-7--2-------------------------------|
D|--7-7-7-7-----------7-5-7---0-0-0-0-0-0-0---x-x-x-x----------------------------------|
A|-----------------0--------------------------7-7-7-7----------------------------------|
D|----------9h10p9---------------------------------------------------------------------|



************************************

| x   Dead note
| h   Hammer-on
| p   Pull-off
| .   Palm mute

************************************

            
            
Suggest correction
Creating personal tab
Creating personal tab
You can edit any tab online and save it as your Personal.

You can edit, replace or remove any tab part or add personal notes – all changes will be seen only by you.

Personal tabs can be accessed anytime from any device, even offline.
Learn more »
comments
print report bad tab
3 comments total.
0 reply
Dapdopy 30 Jun 05, 2016 08:07 PM

A lot different from what Ian plays live. Watch his rock am ring 2016 performance it should help. https://www.youtube.com/watch?v=eORr-eZzF84 53:47

0 reply
DJcosimo 10 Jun 06, 2016 02:42 AM

Chorus seems ok, but the riff itself sounds a bit wrong. The ending chord of the riff isn't correct. Some mistakes in the bridge, i think Ian plays the chord in the 7th fret, not the 9th

guest
You may want to rate the tab now too:
select rating
Wanna post a correction for this tab? Suggest correction