Oops, an error
Loading. Please wait.
We have Chord Pro version of Afraid Of Heights.
It's the closest thing you can get to the original song and it has interactive parts. Check out the tab »
×
6,847 views 81 this week
no commentswrite comment
1 2 3 4 5
x 11
add to favorites
×
Save as Personal and add changes to this tab that will be seen only by you. Learn more ›
×
You can save this tab as Personal to edit and correct it or add notes. All changes will be seen only by you. Learn more »
launch autoscroll
font size
0
reset
how to read this tab
guitar tuner
edit
Autoscroll
slow
fast
+/-
esc
set tempo
stop
[Intro]

e|-8-8-8-8-8--------------8--10-8-|-8-8-8-8-8-8-8---8-8-8-8-------------------|
B|-8-8-8-8-8--------------8--10-8-|-8-8-8-8-8-8-8---8-8-8-8-----5-------------|
G|-x-x-x-x-x--4b5br4------x--x--x-|-x-x-x-x-x-x-x---x-x-x-x-----5-------------| x4
D|-7-7-7-7-7--x-------0---7--x--7-|-7-7-7-7-7-7-7---7-7-7-7-0---3-------------|
A|-0-0-0-0-0--2b3br2--0------10-0-|-5-5-5-5-5-0-5---8-8-8-8-0---0-------------|
D|------------------------------0-|-------------------------------------------|


[Verse 1]

Guitar 1
Let Ring_________|
e|------0----0---|-8-8-8-8-8-8-8---8-8-8-8------------------------------------|
B|-5----5----5---|-8-8-8-8-8-8-8---8-8-8-8-----5------------------------------|
G|-5----4----5---|-x-x-x-x-x-x-x---x-x-x-x-----5------------------------------|
D|-7----5----3---|-7-7-7-7-7-7-7---7-7-7-7-----5------------------------------|
A|-0-------------|-5-5-5-5-5-0-5---8-8-8-8-0---3------------------------------|
D|---------------|------------------------------------------------------------|
Let Ring
e|------0----0---|-8-8--8-8--8-8----------------------------------------------|
B|-5----5----5---|-8-8--8-8--8-8--5-5-----------------------------------------|
G|-5----4----5---|-x-x--x-x--x-x--5-5-----------------------------------------|
D|-7----5----3---|-7-7--7-7--7-7--5-5-----------------------------------------|
A|-0-------------|-5-5--7-7--8-8--3-3-----------------------------------------|
D|---------------|------------------------------------------------------------|
  ^^^GUITAR 2^^^


Guitar 2 (only in section noted above)
e|------------------------------------|--------------------------------------|
B|------------------------------------|--------------------------------------|
G|-5-5-5-5--5-5-5-5--5-5-5-5--7-7-7-7-|-4-4-4-4--4-4-4-4--4-4-4-4--5-5-5-5---|
D|-7-7-7-7--7-7-7-7--7-7-7-7--7-7-7-7-|-5-5-5-5--5-5-5-5--5-5-5-5--5-5-5-5---|
A|------------------------------------|--------------------------------------|
D|------------------------------------|--------------------------------------|
Guitar 2
e|---------------------------------------------------------------------------|
B|---------------------------------------------------------------------------|
G|-5-5-5-5--5-5-5-5--5-7-7-7--7-7-7-7----------------------------------------|
D|-3-3-3-3--3-3-3-3--3-3-3-3--3-3-3-3----------------------------------------|
A|---------------------------------------------------------------------------|
D|---------------------------------------------------------------------------|


[Verse 1 Live Variation] - the two guitar parts combined
Let Ring_________
e|------0----0---|-8-8-8-8-8-8-8---8-8-8-8------------------------------------|
B|-5----5----5---|-8-8-8-8-8-8-8---8-8-8-8-----5------------------------------|
G|-5----4----5---|-x-x-x-x-x-x-x---x-x-x-x-----5------------------------------|
D|-7----5----3---|-7-7-7-7-7-7-7---7-7-7-7-----5------------------------------|
A|-0-------------|-5-5-5-5-5-0-5---8-8-8-8-0---3------------------------------|
D|---------------|------------------------------------------------------------|
Let first chord of each bar ring
e|------------------------------------|-0-------------------------------------|
B|-5----------------------------------|-5-------------------------------------|
G|-5-5-5-5--5-5-5-5--5-5-5-5--7-7-7-7-|-4-4-4-4--4-4-4-4--4-4-4-4--5-5-5-5----|
D|-7-7-7-7--7-7-7-7--7-7-7-7--7-7-7-7-|-5-5-5-5--5-5-5-5--5-5-5-5--5-5-5-5----|
A|-0----------------------------------|---------------------------------------|
D|------------------------------------|---------------------------------------|
Let first chord of bar ring
e|-0----------------------------------|-8-8--8-8--8-8-------------------------|
B|-5----------------------------------|-8-8--8-8--8-8--5-5--------------------|
G|-5-5-5-5--5-5-5-5--5-7-7-7--7-7-7-7-|-x-x--x-x--x-x--5-5--------------------|
D|-3-3-3-3--3-3-3-3--3-3-3-3--3-3-3-3-|-7-7--7-7--7-7--5-5--------------------|
A|------------------------------------|-5-5--7-7--8-8--3-3--------------------|
D|------------------------------------|---------------------------------------|



[Chorus]

Look at how the riff starts just before the beat, before the bar. It's important
to note this offbeat pattern because in the fourth and eighth bar it reverts to a straight 
pattern, hence the first chord in that bar being played 5 times and the fourth 
chord only played three times to catch up.

e---|-----------------------------------|------------------------------------
B--5|--5-5--6-6-6-6--5-5-5-5--6-6-6-6--5|--5-5--6-6-6-6--5-5-5-5--6-6-6-6----
G--5|--5-5--5-5-5-5--5-5-5-5--5-5-5-5--5|--5-5--5-5-5-5--5-5-5-5--5-5-5-5----
D--3|--3-3--3-3-3-3--3-3-3-3--3-3-3-3--x|--x-x--x-x-x-x--x-x-x-x--x-x-x-x----
A--3|--3-3--3-3-3-3--3-3-3-3--3-3-3-3--0|--0-0--0-0-0-0--0-0-0-0--0-0-0-0----
D--3|--3-3--3-3-3-3--3-3-3-3--3-3-3-3---|------------------------------------

e---|------------------------------------|-----------------------------------
B--5|--5-5--6-6-6-6--5-5-5-5--6-6-6-6---8|-8-8-8-8--6-6-6-6--5-5-5-5--6-6-6--
G--5|--5-5--5-5-5-5--5-5-5-5--5-5-5-5---7|-7-7-7-7--7-7-7-7--7-7-7-7--7-7-7--
D--0|--0-0--0-0-0-0--0-0-0-0--0-0-0-0---0|-0-0-0-0--0-0-0-0--0-0-0-0--0-0-0--
A--x|--x-x--x-x-x-x--x-x-x-x--x-x-x-x---0|-0-0-0-0--0-0-0-0--0-0-0-0--0-0-0--
D--5|--5-5--5-5-5-5--5-5-5-5--5-5-5-5---0|-0-0-0-0--0-0-0-0--0-0-0-0--0-0-0--

e---|-----------------------------------|------------------------------------
B--5|--5-5--6-6-6-6--5-5-5-5--6-6-6-6--5|--5-5--6-6-6-6--5-5-5-5--6-6-6-6----
G--5|--5-5--5-5-5-5--5-5-5-5--5-5-5-5--5|--5-5--5-5-5-5--5-5-5-5--5-5-5-5----
D--3|--3-3--3-3-3-3--3-3-3-3--3-3-3-3--x|--x-x--x-x-x-x--x-x-x-x--x-x-x-x----
A--3|--3-3--3-3-3-3--3-3-3-3--3-3-3-3--0|--0-0--0-0-0-0--0-0-0-0--0-0-0-0----
D--3|--3-3--3-3-3-3--3-3-3-3--3-3-3-3---|------------------------------------

e---|------------------------------------|-----------------------------------
B--5|--5-5--6-6-6-6--5-5-5-5--6-6-6-6---8|-8-8-8-8--6-6-6-6--5-5-5-5--6-6-6--
G--5|--5-5--5-5-5-5--5-5-5-5--5-5-5-5---7|-7-7-7-7--7-7-7-7--7-7-7-7--7-7-7--
D--0|--0-0--0-0-0-0--0-0-0-0--0-0-0-0---0|-0-0-0-0--0-0-0-0--0-0-0-0--0-0-0--
A--x|--x-x--x-x-x-x--x-x-x-x--x-x-x-x---0|-0-0-0-0--0-0-0-0--0-0-0-0--0-0-0--
D--5|--5-5--5-5-5-5--5-5-5-5--5-5-5-5---0|-0-0-0-0--0-0-0-0--0-0-0-0--0-0-0--



[Chorus Outro]

e|-8-8-8-8-8--------------8--10-8-|-8-8-8-8-8-8-8---8-8-8-8-------------------|
B|-8-8-8-8-8--------------8--10-8-|-8-8-8-8-8-8-8---8-8-8-8-----5-------------|
G|-x-x-x-x-x--4b5br4--2---x--x--x-|-x-x-x-x-x-x-x---x-x-x-x-----5-------------|
D|-7-7-7-7-7--x-------x---7-----7-|-7-7-7-7-7-7-7---7-7-7-7-----5-------------|
A|-0-0-0-0-0--2b3br2--0------10-0-|-5-5-5-5-5-0-5---8-8-8-8-0---3-------------|
D|------------------------------0-|-------------------------------------------|


[Verse 2]

Guitar 1
e|------0----0---|-8-8-8-8-8-8-8---8-8-8-8------------------------------------|
B|-5----5----5---|-8-8-8-8-8-8-8---8-8-8-8-----5------------------------------|
G|-5----4----5---|-x-x-x-x-x-x-x---x-x-x-x-----5------------------------------|
D|-7----5----3---|-7-7-7-7-7-7-7---7-7-7-7-----5------------------------------|
A|-0-------------|-5-5-5-5-5-0-5---8-8-8-8-0---3------------------------------|
D|---------------|------------------------------------------------------------|
  ^^^GUITAR 2^^^

e|------0----0---|-8-8--8-8--8-8----------------------------------------------|
B|-5----5----5---|-8-8--8-8--8-8--5-5-----------------------------------------|
G|-5----4----5---|-x-x--x-x--x-x--5-5-----------------------------------------|
D|-7----5----3---|-7-7--7-7--7-7--5-5-----------------------------------------|
A|-0-------------|-5-5--7-7--8-8--3-3-----------------------------------------|
D|---------------|------------------------------------------------------------|
  ^^^GUITAR 2^^^
  ^^^GUITAR 3^^^

Guitar 2 (only in sections noted above)
e|------------------------------------|--------------------------------------|
B|------------------------------------|--------------------------------------|
G|-5-5-5-5--5-5-5-5--5-5-5-5--7-7-7-7-|-4-4-4-4--4-4-4-4--4-4-4-4--5-5-5-5---|
D|-7-7-7-7--7-7-7-7--7-7-7-7--7-7-7-7-|-5-5-5-5--5-5-5-5--5-5-5-5--5-5-5-5---|
A|------------------------------------|--------------------------------------|
D|------------------------------------|--------------------------------------|

e|---------------------------------------------------------------------------|
B|---------------------------------------------------------------------------|
G|-5-5-5-5--5-5-5-5--5-7-7-7--7-7-7-7----------------------------------------|
D|-3-3-3-3--3-3-3-3--3-3-3-3--3-3-3-3----------------------------------------|
A|---------------------------------------------------------------------------|
D|---------------------------------------------------------------------------| 

 
Guitar 3 (only in section noted above)
e|----------------------------------|----------------------------------------|
B|----------------------------------|----------------------------------------|
G|---5---5---5---5----7---7---7---7-|---7---7---7---7----9---9---9---9-------|
D|-7---7---7---7----7---7---7---7---|-9---9---9---9----9---9---9---9---------|
A|----------------------------------|----------------------------------------|
D|----------------------------------|----------------------------------------|

e|---------------------------------------------------------------------------|
B|---------------------------------------------------------------------------|
G|----9----9----9----9-----9----9----9----9----------------------------------|
D|-10---10---10---10----10---10---10---10------------------------------------|
A|---------------------------------------------------------------------------|
D|---------------------------------------------------------------------------|


[Verse 2 Live Variation] - the three guitar parts combined
Let first chord of each bar ring
e|------------------------------------|-0------------------------------------|
B|-5----------------------------------|-5------------------------------------|
G|-5-5-5-5--5-5-5-5--5-5-5-5--7-7-7-7-|-4-4-4-4--4-4-4-4--4-4-4-4--5-5-5-5---|
D|-7-7-7-7--7-7-7-7--7-7-7-7--7-7-7-7-|-5-5-5-5--5-5-5-5--5-5-5-5--5-5-5-5---|
A|-0----------------------------------|--------------------------------------|
D|------------------------------------|--------------------------------------|
Let first chord of bar ring
e|-0----------------------------------|-8-8-8-8-8-8-8---8-8-8-8--------------|
B|-5----------------------------------|-8-8-8-8-8-8-8---8-8-8-8-----5--------|
G|-5-5-5-5--5-5-5-5--5-7-7-7--7-7-7-7-|-x-x-x-x-x-x-x---x-x-x-x-----5--------|
D|-3-3-3-3--3-3-3-3--3-3-3-3--3-3-3-3-|-7-7-7-7-7-7-7---7-7-7-7-----5--------|
A|------------------------------------|-5-5-5-5-5-0-5---8-8-8-8-0---3--------|
D|------------------------------------|--------------------------------------|

e|----------------------------------|----------------------------------------|
B|----------------------------------|----------------------------------------|
G|---5---5---5---5----7---7---7---7-|---7---7---7---7----9---9---9---9-------|
D|-7---7---7---7----7---7---7---7---|-9---9---9---9----9---9---9---9---------|
A|----------------------------------|----------------------------------------|
D|----------------------------------|----------------------------------------|

e|------------------------------------------|-8-8--8-8--8-8------------------|
B|------------------------------------------|-8-8--8-8--8-8--5-5-------------|
G|----9----9----9----9-----9----9----9----9-|-x-x--x-x--x-x--5-5-------------|
D|-10---10---10---10----10---10---10---10---|-7-7--7-7--7-7--5-5-------------|
A|------------------------------------------|-5-5--7-7--8-8--3-3-------------|
D|------------------------------------------|--------------------------------|




[Chorus]
 
e---|-----------------------------------|-------------------------------------
B--5|--5-5--6-6-6-6--5-5-5-5--6-6-6-6--5|--5-5--6-6-6-6--5-5-5-5--6-6-6-6-----
G--5|--5-5--5-5-5-5--5-5-5-5--5-5-5-5--5|--5-5--5-5-5-5--5-5-5-5--5-5-5-5-----
D--3|--3-3--3-3-3-3--3-3-3-3--3-3-3-3--x|--x-x--x-x-x-x--x-x-x-x--x-x-x-x-----
A--3|--3-3--3-3-3-3--3-3-3-3--3-3-3-3--0|--0-0--0-0-0-0--0-0-0-0--0-0-0-0-----
D--3|--3-3--3-3-3-3--3-3-3-3--3-3-3-3---|-------------------------------------

e---|------------------------------------|------------------------------------
B--5|--5-5--6-6-6-6--5-5-5-5--6-6-6-6---8|-8-8-8-8--6-6-6-6--5-5-5-5--6-6-6---
G--5|--5-5--5-5-5-5--5-5-5-5--5-5-5-5---7|-7-7-7-7--7-7-7-7--7-7-7-7--7-7-7---
D--0|--0-0--0-0-0-0--0-0-0-0--0-0-0-0---0|-0-0-0-0--0-0-0-0--0-0-0-0--0-0-0---
A--x|--x-x--x-x-x-x--x-x-x-x--x-x-x-x---0|-0-0-0-0--0-0-0-0--0-0-0-0--0-0-0---
D--5|--5-5--5-5-5-5--5-5-5-5--5-5-5-5---0|-0-0-0-0--0-0-0-0--0-0-0-0--0-0-0---

e---|-----------------------------------|-------------------------------------
B--5|--5-5--6-6-6-6--5-5-5-5--6-6-6-6--5|--5-5--6-6-6-6--5-5-5-5--6-6-6-6-----
G--5|--5-5--5-5-5-5--5-5-5-5--5-5-5-5--5|--5-5--5-5-5-5--5-5-5-5--5-5-5-5-----
D--3|--3-3--3-3-3-3--3-3-3-3--3-3-3-3--x|--x-x--x-x-x-x--x-x-x-x--x-x-x-x-----
A--3|--3-3--3-3-3-3--3-3-3-3--3-3-3-3--0|--0-0--0-0-0-0--0-0-0-0--0-0-0-0-----
D--3|--3-3--3-3-3-3--3-3-3-3--3-3-3-3---|-------------------------------------

e---|------------------------------------|------------------------------------
B--5|--5-5--6-6-6-6--5-5-5-5--6-6-6-6---8|-8-8-8-8--6-6-6-6--5-5-5-5--6-6-6---
G--5|--5-5--5-5-5-5--5-5-5-5--5-5-5-5---7|-7-7-7-7--7-7-7-7--7-7-7-7--7-7-7---
D--0|--0-0--0-0-0-0--0-0-0-0--0-0-0-0---0|-0-0-0-0--0-0-0-0--0-0-0-0--0-0-0---
A--x|--x-x--x-x-x-x--x-x-x-x--x-x-x-x---0|-0-0-0-0--0-0-0-0--0-0-0-0--0-0-0---
D--5|--5-5--5-5-5-5--5-5-5-5--5-5-5-5---0|-0-0-0-0--0-0-0-0--0-0-0-0--0-0-0---


[Solo]

Guitar 1
e---|-----------------|-----------------|------------------|-5-5-5-5-5--5-|
B---|-----------------|-----------------|------------------|-5-8-5-5-6--5-|
G---|-2-----2-----2---|-4-----5-----7---|-5-----5------5---|-5-5-7-5-7--5-| x2
D-2-|---5-2---5-2---5-|---5-5---7-7---5-|---3-3---3-3----3-|--------------|
A---|-----------------|-----------------|------------------|--------------|
D---|-----------------|-----------------|------------------|--------------|

Guitar 2
e|---|---|---|-----------|---|---|---|-----------|
B|---|---|---|-----------|---|---|---|-----------|
G|---|---|---|-----------|---|---|---|-----------|
D|---|---|---|-----------|---|---|---|-----------|
A|---|---|---|-----------|---|---|---|-----------|
D|-7-|-5-|-3-|-0-0-0-0-0-|-7-|-5-|-3-|-0-0-0-0-0-|


[Bridge]

e|---------0-|---------0-|---------0-|---------0-|
B|---------0-|---------0-|---------5-|---------5-|
G|---------x-|---------x-|---------5-|---------5-|
D|-7-7-7-7-7-|-5-5-5-5-5-|-3-3-3-3-3-|-0-0-0-0-0-|
A|-7-7-7-7-7-|-5-5-5-5-5-|-3-3-3-3-3-|-0-0-0-0-0-|
D|-7-7-7-7-7-|-5-5-5-5-5-|-3-3-3-3-3-|-0-0-0-0-0-|
 
e|------------------------------------|----------------------------------------------------|
B|------------------------------------|----------------------------------------------------|
G|-----------------------7-7--7-7-7-7-|-9--9--9--9---9--9--9--9---9--9--9--9---9--9--9--9--|
D|-5-5-5-5--5-5-5-5--5-5-5-5--5-5-5-5-|-10-10-10-10--10-10-10-10--10-10-10-10--10-10-10-10-|
A|-5-5-5-5--5-5-5-5--5-5-5-5--5-5-5-5-|-7--7--7--7---7--7--7--7---7--7--7--7---7--7--7--7--|
D|-5-5-5-5--5-5-5-5--5-5-5-5--5-5-5-5-|-7--7--7--7---7--7--7--7---7--7--7--7---7--7--7--7--|
 PM__________________________________________________________



[Chorus]

e---|-----------------------------------|-------------------------------------
B--5|--5-5--6-6-6-6--5-5-5-5--6-6-6-6--5|--5-5--6-6-6-6--5-5-5-5--6-6-6-6-----
G--5|--5-5--5-5-5-5--5-5-5-5--5-5-5-5--5|--5-5--5-5-5-5--5-5-5-5--5-5-5-5-----
D--3|--3-3--3-3-3-3--3-3-3-3--3-3-3-3--x|--x-x--x-x-x-x--x-x-x-x--x-x-x-x-----\
A--3|--3-3--3-3-3-3--3-3-3-3--3-3-3-3--0|--0-0--0-0-0-0--0-0-0-0--0-0-0-0----- \
D--3|--3-3--3-3-3-3--3-3-3-3--3-3-3-3---|-------------------------------------  \
                                                                                 \
e---|------------------------------------|------------------------------------    \
B--5|--5-5--6-6-6-6--5-5-5-5--6-6-6-6---8|-8-8-8-8--6-6-6-6--5-5-5-5--6-6-6---     \
G--5|--5-5--5-5-5-5--5-5-5-5--5-5-5-5---7|-7-7-7-7--7-7-7-7--7-7-7-7--7-7-7---      |
D--0|--0-0--0-0-0-0--0-0-0-0--0-0-0-0---0|-0-0-0-0--0-0-0-0--0-0-0-0--0-0-0---      |
A--x|--x-x--x-x-x-x--x-x-x-x--x-x-x-x---0|-0-0-0-0--0-0-0-0--0-0-0-0--0-0-0---      |
D--5|--5-5--5-5-5-5--5-5-5-5--5-5-5-5---0|-0-0-0-0--0-0-0-0--0-0-0-0--0-0-0---      |
                                                                                    |-- x4
e---|-----------------------------------|-------------------------------------      |
B--5|--5-5--6-6-6-6--5-5-5-5--6-6-6-6--5|--5-5--6-6-6-6--5-5-5-5--6-6-6-6-----      |
G--5|--5-5--5-5-5-5--5-5-5-5--5-5-5-5--5|--5-5--5-5-5-5--5-5-5-5--5-5-5-5-----      |
D--3|--3-3--3-3-3-3--3-3-3-3--3-3-3-3--x|--x-x--x-x-x-x--x-x-x-x--x-x-x-x-----      |
A--3|--3-3--3-3-3-3--3-3-3-3--3-3-3-3--0|--0-0--0-0-0-0--0-0-0-0--0-0-0-0-----     /
D--3|--3-3--3-3-3-3--3-3-3-3--3-3-3-3---|-------------------------------------    /
                                                                                 /
e---|-------------------------------------|-----------------------------------  /
B--5|--5-5--6-6-6-6--5-5-5-5--6-6-6-6---8|-8-8-8-8--6-6-6-6--5-5-5-5--6-6-6--- /
G--5|--5-5--5-5-5-5--5-5-5-5--5-5-5-5---7|-7-7-7-7--7-7-7-7--7-7-7-7--7-7-7---/
D--0|--0-0--0-0-0-0--0-0-0-0--0-0-0-0---0|-0-0-0-0--0-0-0-0--0-0-0-0--0-0-0---
A--x|--x-x--x-x-x-x--x-x-x-x--x-x-x-x---0|-0-0-0-0--0-0-0-0--0-0-0-0--0-0-0---
D--5|--5-5--5-5-5-5--5-5-5-5--5-5-5-5---0|-0-0-0-0--0-0-0-0--0-0-0-0--0-0-0---


[Outro]

e|-8-8-8-8-8--------------8--10-8-|-8-8-8-8-8-8-8---8-8-8-8-------------------|
B|-8-8-8-8-8--------------8--10-8-|-8-8-8-8-8-8-8---8-8-8-8-----5-------------|
G|-x-x-x-x-x--4b5br4--2---x--x--x-|-x-x-x-x-x-x-x---x-x-x-x-----5-------------|
D|-7-7-7-7-7--x-------x---7-----7-|-7-7-7-7-7-7-7---7-7-7-7-----5-------------|
A|-0-0-0-0-0--2b3br2--0------10-0-|-5-5-5-5-5-0-5---8-8-8-8-0---3-------------|
D|------------------------------0-|-------------------------------------------|


************************************

| x   Dead note
| b   Bend
| br  Bend release
| PM  Palm Mute
  

************************************

            
            
Suggest correction
Creating personal tab
Creating personal tab
You can edit any tab online and save it as your Personal.

You can edit, replace or remove any tab part or add personal notes – all changes will be seen only by you.

Personal tabs can be accessed anytime from any device, even offline.
Learn more »
comments
print report bad tab
guest
You may want to rate the tab now too:
select rating
Wanna post a correction for this tab? Suggest correction