Oops, an error
Loading. Please wait.

Beach Balls Bass Tab

version 1
version 1

Whole song

Interactive

1,650 views 1 this week
no commentswrite comment
1 2 3 4 5
please rate
add to favorites
launch autoscroll
font size
0
reset
guitar tuner
Autoscroll
slow
fast
+/-
esc
set tempo
stop
Help us to improve Ultimate-Guitar.com Take our survey!
×
----------------------------------------------------------------------------
			     BEACH BALLS - Billy Talent
----------------------------------------------------------------------------

Tabbed By : Jenny
e-mail: friendly_feline_14@hotmail.com

Intro/Verse

G|--------------0-----------              Intro----| 2x
D|---------1-2-4--0----00---              Verse----| 4x
A|-------02--------2-10---3-              Chorus---| 2x
E|-0--2-3-------------------              Intro----| 2x
                                          Verse: 4x
Chorus                                    Chorus: 4x
G|------------2-02------------|
D|---02------------542520-----|
A|------2-22--------------32--|
E|-0--------------------------|

Bridge
G|----0-------------------0-------------------------------------------------|
D|-----4--------------------4-----------------------------------------------|
A|-------32--2320-------------32--2222222222222222--------------------------|
E|-023-----------320---023-------------------------3 (slide down to open)---|

G|-------------------------------|
D|-------------------------------|      << this bit x2
A|-----23----565-----5-3--56532--|
E|-3-3-----------3-3-------------|

G|---------------------------------------------------------------------------|
D|---------------------------------------------------------------------------|
A|-2222222233333333--------33333333-2(hold)-3(hold)--------33333333----------|
E|-----------------33333333------------------------33333333---------33333333-|

G|------------------------------------------------------2222-|
D|-----------------00224455----------------------------------|
A|-33333333--112233-------------112233-33--33--2-2-----------|
E|---------33-----------------33---------33--33-2-2-2222-----|

G|----------------------------------|
D|-------------------------12221222-|  << this bit x3
A|---------2333233323332333---------|
E|-31113111-------------------------|

End
G|----------------------------|
D|----------------------------|
A|---------333333332----------|
E|-31113111----------------0--|
Suggest correction
What's this?
You can suggest a correction to this tab. Community and Mods will review your correction and vote to approve or reject it.
comments
We did not receive enough feedback on this tab! Please rate:
print report bad tab
1 2 3 4 5
guest
You may want to rate the tab now too:
select rating
Please do not post tabs as comments. Select "correction" instead!