Oops, an error
Loading. Please wait.

Beach Balls Bass Tab

version 2
version 2

Whole song

Interactive

443 views 1 this week
no commentswrite comment
1 2 3 4 5
please rate
add to favorites
launch autoscroll
font size
0
reset
guitar tuner
Autoscroll
slow
fast
+/-
esc
set tempo
stop
Help us to improve Ultimate-Guitar.com Take our survey!
×
Contributor
Difficulty
3D music 202
intermediate
Tabbed by: Tommy Enns (3D music)

I think this is right enjoy and please rat


Opening/Verse
G|------------------| 
D|------------------| 
A|------------------|
E|-0--2-3-5-7~ -----|

G|------------------| 
D|------------------| 
A|--6-7--9 10-------|
E|------------------|

G|-------------------|
D|-------------------|
A|5-2--1-0-5-5-3-----|
E|-------------------|


Chorus x 2
G|--------------------------------------------|
D|--------------------------------------------| 
A|--------------22222222-0000000--------------|
E|-00000000--------------------------3333-2222| 


Post Chorus
G|----------------------------------------|
D|----------------------------------------|
A|----------------------------------------|
E|--3333--------0000--------3333-----7(16)|


Break
G|------------------------------------| x4
D|------------------------------------|
A|-----------------2h3~ -3----5h3~----|
E|--3~-----3~ ------------------------|

G|------------------| x2    G|----------------------------|   G|-------------------------|
D|------------------|       D|----------------------------|   D|-------------------------|
A|------------------|       A|----------------------------|   A|---------------33333333-- 
E|-77777777-88888888        E|--7~ ------8~ --------------|   E|---33333333--------------|


Ending
G|----------------------------------------|
D|----------------------------------------|
A|----------------------6-7-7-7-6-7-7-7---|
E|--6-7-7-7-6-7-7-7-----------------------|

G|----------------------------------------|
D|----------------------------------------|
A|------------------2-3-3-3-2-3-3-3-------|
E|--2-3-3-3-2-3-3-3-----------------------|

Closing
G|---------|
D|---------|
A|-5~ -7---|
E|---------|


~ = Let the note fade
h = Hammer
(16) = Times 16


Opening/Verse (00:14) x6
Chorus (00:55) x1
Verse (01:09) x6
Chorus (01:50) x2
Post Chorus (02:19) x1  (16)is only for the 7th fret)
Break (02:38)
Ending (03:15) x5 (I think)
Closing (03:43) x1

comments
We did not receive enough feedback on this tab! Please rate:
print report bad tab
1 2 3 4 5
I want to post or [tab]
guest
You may want to rate the tab now too:
select rating
Please do not post tabs as comments. Select "correction" instead!