Oops, an error
Loading. Please wait.

Beach Balls Bass Tab

version 3
version 3

Whole song

Interactive

1,051 views 3 this week
no commentswrite comment
1 2 3 4 5
please rate
add to favorites
launch autoscroll
font size
0
reset
guitar tuner
Autoscroll
slow
fast
+/-
esc
set tempo
stop
Help us to improve Ultimate-Guitar.com Take our survey!
×
Author
Difficulty
Tuning
intermediate
E B E G# B E
Tabbed by:Tony D

it's an oldie. 
had this lying and said why not post it up
so you could play it.
comment and rate!

Intro:2x
G|------------------------------------|              
D|-----------1--2--4-5----------------|              
A|-------0-2-----------5-------5-5--3-|              
E|-0--2-3----------------7-6-5--------|              

Verse: Play Intro 4x

Chorus:2x                                    
G|-----------------------2---------------|
D|-------------4--------2----------------|
A|---2-----0-2---------------0-2-0-------|
E|-0---0-3------0-3-4-5----3-------3-2-0-|

Post-Chorus: Play verse 2x
Verse:4x
Chorus:4x

Bridge:1x
G|--------------------------------------------------------|
D|-------5-4-2--------------------------------------5-4-2-|
A|-0-2-3----------------2-3-2-----------------0-2-3-------|
E|-------------3-3-3-3--------5--3-2--0-0-0-0-------------|

G|--------------------------------------------------------|
D|--------------------------------------------------------| 
A|---------2222222266666666--------3(ring)--------3(ring)-|
E|-3-3-3-3------------------3(ring)--------3(ring)--------|

G|--------------------------------------------|
D|----------------22-44-5---------------------| 
A|-------0-2-3--3------------5-3--3-5-3-2-----|
E|-3--33------------------3---------------5-3-|

G|--------------------------------------------------|
D|----------------22-44-5---------------------------| 
A|-------0-2-3--3------------5-3--3-5-3-2-0-2(ring)-|
E|-3--33------------------3-------------------------|

G|-----------------------------------------|
D|-----------------------------------------|
A|-3(ring)---------3(ring)-2(ring)-3(ring)-|
E|---------3(ring)-------------------------|

G|--------------------------------------------------------------------------|
D|-------------------------------------------223344-------------------------|
A|---------33333333--------33333333--00112233--------00112233--33---2---2---|
E|-33333333--------33333333--------33--------------33--------33--33---2---2-|

G|-----------------------------------|
D|-22222222--------------------------|  
A|-----------------33332333312221222-|
E|---------23332333------------------|

Outro:3x
G|------------------------------|
D|-22222222---------------------|  
A|-----------------33333333-2---|
E|---------23332333-----------0-|
Suggest correction
Give kudos to tab author, rate the tab!
1 2 3 4 5
comments
print report bad tab
guest
You may want to rate the tab now too:
select rating
Wanna post a correction for this tab? Suggest correction