Oops, an error
Loading. Please wait.

Beach Balls Bass Tab

version 4
version 4

Whole song

Interactive

261 views 1 this week
no commentswrite comment
1 2 3 4 5
please rate
add to favorites
launch autoscroll
font size
0
reset
guitar tuner
Autoscroll
slow
fast
+/-
esc
set tempo
stop
Help us to improve Ultimate-Guitar.com Take our survey!
×
Difficulty
intermediate
G|--------------0-----------|
D|---------1-2-4--0----00---|
A|-------02--------2-10---3-|
E|-0--2-3-------------------|

G|--------------0-----------|
D|---------1-2-4--0----00---|
A|-------02--------2-10---3-|
E|-0--2-3-------------------|

G|--------------0-----------|
D|---------1-2-4--0----00---|
A|-------02--------2-10---3-|
E|-0--2-3-------------------|

G|--------------0-----------|
D|---------1-2-4--0----00---|
A|-------02--------2-10---3-|
E|-0--2-3-------------------|

G|--------------0-----------|
D|---------1-2-4--0----00---|
A|-------02--------2-10---3-|
E|-0--2-3-------------------|

G|--------------0-----------|
D|---------1-2-4--0----00---|
A|-------02--------2-10---3-|
E|-0--2-3-------------------|

G|--------------0-----------|
D|---------1-2-4--0----00---|
A|-------02--------2-10---3-|
E|-0--2-3-------------------|

G|------------------2-----------|
D|-----------44----2-542520-----|
A|--22----02---0230---------32--|
E|-0---23-----------------------|

G|------------------2-----------|
D|-----------44----2-542520-----|
A|--22----02---0230---------32--|
E|-0---23-----------------------|


G|--------------0-----------|
D|---------1-2-4--0----00---|
A|-------02--------2-10---3-|
E|-0--2-3-------------------|

G|--------------0-----------|
D|---------1-2-4--0----00---|
A|-------02--------2-10---3-|
E|-0--2-3-------------------|

G|--------------0-----------|
D|---------1-2-4--0----00---|
A|-------02--------2-10---3-|
E|-0--2-3-------------------|

G|--------------0-----------|
D|---------1-2-4--0----00---|
A|-------02--------2-10---3-|
E|-0--2-3-------------------|

G|--------------0-----------|
D|---------1-2-4--0----00---|
A|-------02--------2-10---3-|
E|-0--2-3-------------------|

G|--------------0-----------|
D|---------1-2-4--0----00---|
A|-------02--------2-10---3-|
E|-0--2-3-------------------|

G|------------------2-----------|
D|-----------44----2-542520-----|
A|--22----02---0230---------32--|
E|-0---23-----------------------|

G|------------------2-----------|
D|-----------44----2-542520-----|
A|--22----02---0230---------32--|
E|-0---23-----------------------|

G|------------------2-----------|
D|-----------44----2-542520-----|
A|--22----02---0230---------32--|
E|-0---23-----------------------|

G|------------------2-----------|
D|-----------44----2-542520-----|
A|--22----02---0230---------32--|
E|-0---23-----------------------|


G|----0-------------------0----------------------------|
D|-----4--------------------4--------------------------|
A|-------32--2320-------------32--2222222222222222-----|
E|-023-----------320---023-------------------------3---|

G|-------------------------------|
D|-------------------------------|
A|-----23----565-----5-3--56532--|
E|-3-3-----------3-3-------------|

G|-------------------------------|
D|-------------------------------|
A|-----23----565-----5-3--56532--|
E|-3-3-----------3-3-------------|


G|---------------------------------------------------------------------------|
D|---------------------------------------------------------------------------|
A|-2222222233333333--------33333333-2-3--------------------33333333----------|
E|-----------------33333333------------------------33333333---------33333333-|

G|------------------------------------------------------2222-|
D|-----------------00224455----------------------------------|
A|-33333333--112233-------------112233-33--33--2-2-----------|
E|---------33-----------------33---------33--33-2-2-2222-----|

G|----------------------------------|
D|-------------------------12221222-|
A|---------2333233323332333---------|
E|-31113111-------------------------|

G|----------------------------------|
D|-------------------------12221222-|
A|---------2333233323332333---------|
E|-31113111-------------------------|

G|----------------------------------|
D|-------------------------12221222-|
A|---------2333233323332333---------|
E|-31113111-------------------------|



G|----------------------------|
D|----------------------------|
A|---------333333332----------|
E|-31113111----------------0--|
comments
We did not receive enough feedback on this tab! Please rate:
print report bad tab
1 2 3 4 5
I want to post or [tab]
guest
You may want to rate the tab now too:
select rating
Please do not post tabs as comments. Select "correction" instead!