Oops, an error
Loading. Please wait.

Big Red Gun tab

version 1
version 1

Whole song

Interactive

6,268 views 75 this week
13 commentsread comments
1 2 3 4 5
x 6
add to favorites
×
Save as Personal and add changes to this tab that will be seen only by you. Learn more ›
×
You can save this tab as Personal to edit and correct it or add notes. All changes will be seen only by you. Learn more »
launch autoscroll
font size
0
reset
how to read this tab
guitar tuner
edit
Autoscroll
slow
fast
+/-
esc
set tempo
stop
BILLY TALENT - BIG RED GUN

Guitar-Cover: https://www.youtube.com/watch?v=JGiQERaF_kQ

[Intro]
                                                                      (3x)
e|------0------0------0------0------0---------0------0------0------0-------------|
B|---10-----10-----10-----10-----10---10---12-----12-----13-----13---13---13-----|
G|-9------9------9------9------9---------9------9------9------9---------9--------|
D|-------------------------------------------------------------------------------|
A|-------------------------------------------------------------------------------|
D|-------------------------------------------------------------------------------|

                                                                       (2x)
e|---------------------------------------------------------------------------|
B|---------------------------------------------------------------------------|
G|-----------------------------------------------------------------9-9-9-9---|
D|-7-7-7-7-7-7-7-7-9-9-9-9-10-10-10-10-9-9-9-9-9-9-9-9-10-10-10-10-5-5-5-5---|
A|-7-7-7-7-7-7-7-7-7-7-7-7-7--7--7--7--7-7-7-7-7-7-7-7-5--5--5--5--5-5-5-5---|
D|-7-7-7-7-7-7-7-7-7-7-7-7-7--7--7--7--6-6-6-6-6-6-6-6-5--5--5--5--5-5-5-5---|

e|--------------------------------------------------------------------------|
B|-------------------------------------6-6-------------6-6------------------|
G|-----------------4-4-4-4-5-5-5-5-5-5-5-5-4-4-4-4-5-5-5-5-4-4-4-4----------|
D|-7-7-7-7-7-7-7-7-3-3-3-3-3-3-3-3-x-x-x-x-x-x-x-x-x-x-x-x-x-x-x-x----------|
A|-3-3-3-3-3-3-3-3-3-3-3-3-3-3-3-3-5-5-5-5-5-5-5-5-5-5-5-5-5-5-5-5----------|
D|-3-3-3-3-3-3-3-3-3-3-3-3-3-3-3-3------------------------------------------|


[Verse]
                                                                     (2x)
e|------0------0------0------0------0---------0------0------0------0-------------|
B|---10-----10-----10-----10-----10---10---12-----12-----13-----13---13---13-----|
G|-9------9------9------9------9---------9------9------9------9---------9--------|
D|-------------------------------------------------------------------------------|
A|-------------------------------------------------------------------------------|
D|-------------------------------------------------------------------------------|

                                                                     (2x)
e|-------8---------------------------------------------8-----8-----8-----8-----8----|
B|----10---------10-------10-------10-------10-------6------------------------------|
G|-10------10-10----10-10----10-10----10-10----10--7-----7-7---7-7---7-7---7-7---7--|
D|----------------------------------------------------------------------------------|
A|----------------------------------------------------------------------------------|
D|----------------------------------------------------------------------------------|


[Chorus]
                                                                      (2x)
e|--------------------------------------------------------------------------|
B|--------------------------------------------------------------------------|
G|-------------------------------------4-4-4-4-4-4-4-4-5-5-5-5-5-5-5-5------|
D|-7-7-7-7-7-7-7-7-9-9-9-9-10-10-10-10-2-2-2-2-2-2-2-2-5-5-5-5-5-5-5-5------|
A|-7-7-7-7-7-7-7-7-7-7-7-7-7--7--7--7--2-2-2-2-2-2-2-2-3-3-3-3-3-3-3-3------|
D|-7-7-7-7-7-7-7-7-7-7-7-7-7--7--7--7--2-2-2-2-2-2-2-2----------------------|

                                                                       (2x)
e|--------------------------------------------------------------------------|
B|-------------------------------------6-6-------------6-6------------------|
G|-----------------4-4-4-4-5-5-5-5-5-5-5-5-4-4-4-4-5-5-5-5-4-4-4-4----------|
D|-7-7-7-7-7-7-7-7-3-3-3-3-3-3-3-3-x-x-x-x-x-x-x-x-x-x-x-x-x-x-x-x----------|
A|-3-3-3-3-3-3-3-3-3-3-3-3-3-3-3-3-5-5-5-5-5-5-5-5-5-5-5-5-5-5-5-5----------|
D|-3-3-3-3-3-3-3-3-3-3-3-3-3-3-3-3------------------------------------------|

                                                                       (2x)
e|---------------------------------------------------------------------------|
B|---------------------------------------------------------------------------|
G|-----------------------------------------------------------------9-9-9-9---|
D|-7-7-7-7-7-7-7-7-9-9-9-9-10-10-10-10-9-9-9-9-9-9-9-9-10-10-10-10-5-5-5-5---|
A|-7-7-7-7-7-7-7-7-7-7-7-7-7--7--7--7--7-7-7-7-7-7-7-7-5--5--5--5--5-5-5-5---|
D|-7-7-7-7-7-7-7-7-7-7-7-7-7--7--7--7--6-6-6-6-6-6-6-6-5--5--5--5--5-5-5-5---|


[Verse]
                                                                     (2x)
e|------0------0------0------0------0---------0------0------0------0-------------|
B|---10-----10-----10-----10-----10---10---12-----12-----13-----13---13---13-----|
G|-9------9------9------9------9---------9------9------9------9---------9--------|
D|-------------------------------------------------------------------------------|
A|-------------------------------------------------------------------------------|
D|-------------------------------------------------------------------------------|

                                                                     (2x)
e|-------8---------------------------------------------8-----8-----8-----8-----8----|
B|----10---------10-------10-------10-------10-------6------------------------------|
G|-10------10-10----10-10----10-10----10-10----10--7-----7-7---7-7---7-7---7-7---7--|
D|----------------------------------------------------------------------------------|
A|----------------------------------------------------------------------------------|
D|----------------------------------------------------------------------------------|


[Chorus]
                                                                       (2x)
e|--------------------------------------------------------------------------|
B|--------------------------------------------------------------------------|
G|-------------------------------------4-4-4-4-4-4-4-4-5-5-5-5-5-5-5-5------|
D|-7-7-7-7-7-7-7-7-9-9-9-9-10-10-10-10-2-2-2-2-2-2-2-2-5-5-5-5-5-5-5-5------|
A|-7-7-7-7-7-7-7-7-7-7-7-7-7--7--7--7--2-2-2-2-2-2-2-2-3-3-3-3-3-3-3-3------|
D|-7-7-7-7-7-7-7-7-7-7-7-7-7--7--7--7--2-2-2-2-2-2-2-2----------------------|

                                                                       (2x)
e|--------------------------------------------------------------------------|
B|-------------------------------------6-6-------------6-6------------------|
G|-----------------4-4-4-4-5-5-5-5-5-5-5-5-4-4-4-4-5-5-5-5-4-4-4-4----------|
D|-7-7-7-7-7-7-7-7-3-3-3-3-3-3-3-3-x-x-x-x-x-x-x-x-x-x-x-x-x-x-x-x----------|
A|-3-3-3-3-3-3-3-3-3-3-3-3-3-3-3-3-5-5-5-5-5-5-5-5-5-5-5-5-5-5-5-5----------|
D|-3-3-3-3-3-3-3-3-3-3-3-3-3-3-3-3------------------------------------------|


[Outro]

e|-------------------------------------------------------------------------------------------------...|
B|---------------------------------------------------------------------6-6-------------6-6---------...|
G|-------------------------4-4-4-4-----------------4-4-4-4-5-5-5-5-5-5-5-5-4-4-4-4-5-5-5-5-4-4-4-4-...|
D|-6-6-6-6-6-6-6-6-6-6-6-6-2-2-2-2-7-7-7-7-7-7-7-7-3-3-3-3-3-3-3-3-x-x-x-x-x-x-x-x-x-x-x-x-x-x-x-x-...|
A|-2-2-2-2-2-2-2-2-2-2-2-2-2-2-2-2-3-3-3-3-3-3-3-3-3-3-3-3-3-3-3-3-5-5-5-5-5-5-5-5-5-5-5-5-5-5-5-5-...|
D|-2-2-2-2-2-2-2-2-2-2-2-2-2-2-2-2-3-3-3-3-3-3-3-3-3-3-3-3-3-3-3-3---------------------------------...|
                                 
e|...----------------------------------|
B|...----------------------------------|
G|...-2-2-2-2-2-2-2-2-2-2-2-2-2-2-2-2--|               (4x)
D|...-2-2-2-2-2-2-2-2-2-2-2-2-2-2-2-2--|
A|...-0-0-0-0-0-0-0-0-0-0-0-0-0-0-0-0--|
D|...----------------------------------|


e|...-----------------------|
B|...-----------------------|
G|...-2-2-2-2-2-2-2-2-2~----|
D|...-2-2-2-2-2-2-2-2-2~----|
A|...-0-0-0-0-0-0-0-0-0~----|
D|...-----------------------|
   (at the  end/the 4th time)


Have Fun ;)
made by BILLYacbTALENT (YouTube)


************************************

| x  Dead note
| ~  Vibrato 

************************************
Suggest correction
Creating personal tab
Creating personal tab
You can edit any tab online and save it as your Personal.

You can edit, replace or remove any tab part or add personal notes – all changes will be seen only by you.

Personal tabs can be accessed anytime from any device, even offline.
Learn more »
comments
print report bad tab
13 comments total. Showing first comments.
0 reply
markushein03 126 Jul 02, 2016 10:06 AM

thanks, but why did I had to wait so long :)

0 reply
mitchell.assen 10 Jul 05, 2016 08:59 PM

Thanks for the tab. It's pretty good quality. Hopefully there will be a more accurate one for the title track soon but maybe there is one now, I'll check after this. 5 *****

0 reply
ShrillBear52 75 Nov 12, 2016 05:52 AM, edited at 10:53 am

Well,correct me if I'm wrong, but I hear the open D5 chord during the intro/main riff. Basicly what I'm saying is like this: (kind of)

e|---------------------------------------------------------------------------|
B|---------------------------------------------------------------------------|
G|-----------------------------------------------------------------9-9-9-9---|
D|-0-7-7-7-7-7-7-7-9-9-9-9-10-10-10-10-9-9-9-9-9-9-9-9-10-10-10-10-5-5-5-5---|
A|-0-7-7-7-7-7-7-7-7-7-7-7-7--7--7--7--7-7-7-7-7-7-7-7-5--5--5--5--5-5-5-5---|
D|-0-7-7-7-7-7-7-7-7-7-7-7-7--7--7--7--6-6-6-6-6-6-6-6-5--5--5--5--5-5-5-5---|

guest
You may want to rate the tab now too:
select rating
Wanna post a correction for this tab? Suggest correction