Oops, an error
Loading. Please wait.

Big Red Gun tab

version 3
version 3

Whole song

Interactive

2,317 views 15 this week
1 commentread comment
1 2 3 4 5
x 6
add to favorites
×
Save as Personal and add changes to this tab that will be seen only by you. Learn more ›
×
You can save this tab as Personal to edit and correct it or add notes. All changes will be seen only by you. Learn more »
launch autoscroll
font size
0
reset
how to read this tab
guitar tuner
edit
Autoscroll
slow
fast
+/-
esc
set tempo
stop
Tabbed by aRAGman

Here's my guitar cover too, played using exactly what I tabbed here. Use it to help you learn if you'd like!
https://youtu.be/bHwFsKKOoXk

I've written a couple more tabs from Afraid of Heights, and hope to have more up soon.
Check out my page to keep in the know, I guess? 


[Intro]

Let Ring
e|----0---0---0---0---0---|----0---0---0---0---0---|
B|--10--10--10--10--10-10-|--12--12--13--13--13-13-|
G|-9---9---9---9---9------|-9---9---9---9---9------| x3
D|------------------------|------------------------|
A|------------------------|------------------------|
D|------------------------|------------------------|

e|----------------------------------------|----------------------------------------|
B|----------------------------------------|----------------------------------------|
G|----------------------------------------|--------------------------------9-9-9-9-|
D|-7-7-7-7--7-7-7-7--9-9-9-9--10-10-10-10-|-9-9-9-9--9-9-9-9--10-10-10-10--x-x-x-x-| x2
A|-7-7-7-7--7-7-7-7--7-7-7-7--7--7--7--7--|-7-7-7-7--7-7-7-7--7--7--7--7---7-7-7-7-|
D|-7-7-7-7--7-7-7-7--7-7-7-7--7--7--7--7--|-6-6-6-6--6-6-6-6--5--5--5--5---5-5-5-5-|

e|------------------------------------|------------------------------------|
B|------------------------------------|-----6-----------------6------------|
G|-------------------4-4-4-4--5-5-5-5-|-5-5-5-5--4-4-4-4--5-5-5-5--4-4-4-4-| x2
D|-7-7-7-7--7-7-7-7--x-x-x-x--x-x-x-x-|-x-x-x-x--x-x-x-x--x-x-x-x--x-x-x-x-|
A|-3-3-3-3--3-3-3-3--3-3-3-3--3-3-3-3-|-5-5-5-5--5-5-5-5--5-5-5-5--5-5-5-5-|
D|-3-3-3-3--3-3-3-3--3-3-3-3--3-3-3-3-|-0-0-0-0--0-0-0-0--0-0-0-0--0-0-0-0-|

[Verse 1]

Let Ring
e|----0---0---0---0---0---|----0---0---0---0---0---|
B|--10--10--10--10--10-10-|--12--12--13--13--13-13-|
G|-9---9---9---9---9------|-9---9---9---9---9------| x2
D|------------------------|------------------------|
A|------------------------|------------------------|
D|------------------------|------------------------|

Let Ring
e|-----0----0----0----0----0---|---8--8--8--8--8--|
B|---10---10---10---10---10-10-|--6--6--6--6--6-6-|
G|-10---10---10---10---10------|-7--7--7--7--7----|
D|-----------------------------|------------------|
A|-----------------------------|------------------|
D|-----------------------------|------------------|

Let Ring
e|-----0----0----0----0----0---|---8--8--8--------|
B|---10---10---10---10---10-10-|--6--6--6---------|
G|-10---10---10---10---10------|-7--7--7----------|
D|-----------------------------|------------------|
A|-----------------------------|------------------|
D|-----------------------------|------------------|



[Chorus]

e|----------------------------------------|------------------------------------|
B|----------------------------------------|-------------------5-5-5-5--5-5-5-5-|
G|----------------------------------------|-4-4-4-4--4-4-4-4--5-5-5-5--5-5-5-5-| x2
D|-7-7-7-7--7-7-7-7--9-9-9-9--10-10-10-10-|-2-2-2-2--2-2-2-2--5-5-5-5--5-5-5-5-|
A|-7-7-7-7--7-7-7-7--7-7-7-7--7--7--7--7--|-2-2-2-2--2-2-2-2--3-3-3-3--3-3-3-3-|
D|-7-7-7-7--7-7-7-7--7-7-7-7--7--7--7--7--|-2-2-2-2--2-2-2-2-------------------|

e|------------------------------------|------------------------------------|
B|------------------------------------|-----6-----------------6------------|
G|-------------------4-4-4-4--5-5-5-5-|-5-5-5-5--4-4-4-4--5-5-5-5--4-4-4-4-| x2
D|-7-7-7-7--7-7-7-7--x-x-x-x--x-x-x-x-|-x-x-x-x--x-x-x-x--x-x-x-x--x-x-x-x-|
A|-3-3-3-3--3-3-3-3--3-3-3-3--3-3-3-3-|-5-5-5-5--5-5-5-5--5-5-5-5--5-5-5-5-|
D|-3-3-3-3--3-3-3-3--3-3-3-3--3-3-3-3-|-0-0-0-0--0-0-0-0--0-0-0-0--0-0-0-0-|


[Chorus Outro] 

e|----------------------------------------|----------------------------------------|
B|----------------------------------------|----------------------------------------|
G|----------------------------------------|--------------------------------9-9-9-9-|
D|-7-7-7-7--7-7-7-7--9-9-9-9--10-10-10-10-|-9-9-9-9--9-9-9-9--10-10-10-10--x-x-x-x-| x2
A|-7-7-7-7--7-7-7-7--7-7-7-7--7--7--7--7--|-7-7-7-7--7-7-7-7--7--7--7--7---7-7-7-7-|
D|-7-7-7-7--7-7-7-7--7-7-7-7--7--7--7--7--|-6-6-6-6--6-6-6-6--5--5--5--5---5-5-5-5-|


[Verse 2]

Let Ring
e|----0---0---0---0---0---|----0---0---0---0---0---|
B|--10--10--10--10--10-10-|--12--12--13--13--13-13-|
G|-9---9---9---9---9------|-9---9---9---9---9------| x2
D|------------------------|------------------------|
A|------------------------|------------------------|
D|------------------------|------------------------|

Let Ring
e|-----0----0----0----0----0---|---8--8--8--8--8--|
B|---10---10---10---10---10-10-|--6--6--6--6--6-6-|
G|-10---10---10---10---10------|-7--7--7--7--7----| x2   
D|-----------------------------|------------------|
A|-----------------------------|------------------|
D|-----------------------------|------------------|


[Chorus]

e|----------------------------------------|------------------------------------|
B|----------------------------------------|-------------------5-5-5-5--5-5-5-5-|
G|----------------------------------------|-4-4-4-4--4-4-4-4--5-5-5-5--5-5-5-5-| x2
D|-7-7-7-7--7-7-7-7--9-9-9-9--10-10-10-10-|-2-2-2-2--2-2-2-2--5-5-5-5--5-5-5-5-|
A|-7-7-7-7--7-7-7-7--7-7-7-7--7--7--7--7--|-2-2-2-2--2-2-2-2--3-3-3-3--3-3-3-3-|
D|-7-7-7-7--7-7-7-7--7-7-7-7--7--7--7--7--|-2-2-2-2--2-2-2-2-------------------|

e|------------------------------------|------------------------------------|
B|------------------------------------|-----6-----------------6------------|
G|-------------------4-4-4-4--5-5-5-5-|-5-5-5-5--4-4-4-4--5-5-5-5--4-4-4-4-| x2
D|-7-7-7-7--7-7-7-7--x-x-x-x--x-x-x-x-|-x-x-x-x--x-x-x-x--x-x-x-x--x-x-x-x-|
A|-3-3-3-3--3-3-3-3--3-3-3-3--3-3-3-3-|-5-5-5-5--5-5-5-5--5-5-5-5--5-5-5-5-|
D|-3-3-3-3--3-3-3-3--3-3-3-3--3-3-3-3-|-0-0-0-0--0-0-0-0--0-0-0-0--0-0-0-0-|


[Outro]

e|------------------------------------|------------------------------------|
B|------------------------------------|------------------------------------|
G|----------------------------4-4-4-4-|-------------------4-4-4-4--5-5-5-5-|
D|-6-6-6-6--6-6-6-6--7-7-7-7--x-x-x-x-|-7-7-7-7--7-7-7-7--x-x-x-x--x-x-x-x-|\
A|-2-2-2-2--2-2-2-2--2-2-2-2--2-2-2-2-|-3-3-3-3--3-3-3-3--3-3-3-3--3-3-3-3-| \
D|-2-2-2-2--2-2-2-2--2-2-2-2--2-2-2-2-|-3-3-3-3--3-3-3-3--3-3-3-3--3-3-3-3-|  \
                                                                               x3
e|------------------------------------|------------------------------------|  /
B|-----6-----------------6------------|-2-2-2-2--2-2-2-2--2-2-2-2--2-2-2-2-| /
G|-5-5-5-5--4-4-4-4--5-5-5-5--4-4-4-4-|-2-2-2-2--2-2-2-2--2-2-2-2--2-2-2-2-|/
D|-x-x-x-x--x-x-x-x--x-x-x-x--x-x-x-x-|-2-2-2-2--2-2-2-2--2-2-2-2--2-2-2-2-|
A|-5-5-5-5--5-5-5-5--5-5-5-5--5-5-5-5-|-0-0-0-0--0-0-0-0--0-0-0-0--0-0-0-0-|
D|-0-0-0-0--0-0-0-0--0-0-0-0--0-0-0-0-|------------------------------------|


e|------------------------------------|------------------------------------|
B|------------------------------------|------------------------------------|
G|----------------------------4-4-4-4-|-------------------4-4-4-4--5-5-5-5-|
D|-6-6-6-6--6-6-6-6--7-7-7-7--x-x-x-x-|-7-7-7-7--7-7-7-7--x-x-x-x--x-x-x-x-|
A|-2-2-2-2--2-2-2-2--2-2-2-2--2-2-2-2-|-3-3-3-3--3-3-3-3--3-3-3-3--3-3-3-3-|
D|-2-2-2-2--2-2-2-2--2-2-2-2--2-2-2-2-|-3-3-3-3--3-3-3-3--3-3-3-3--3-3-3-3-| 
                                                                              
e|------------------------------------|------------------------------------| 
B|-----6-----------------6------------|-2-2-2-2--2-2-2-2--2----------------|
G|-5-5-5-5--4-4-4-4--5-5-5-5--4-4-4-4-|-2-2-2-2--2-2-2-2--2----------------|
D|-x-x-x-x--x-x-x-x--x-x-x-x--x-x-x-x-|-2-2-2-2--2-2-2-2--2----------------|
A|-5-5-5-5--5-5-5-5--5-5-5-5--5-5-5-5-|-0-0-0-0--0-0-0-0--0----------------|
D|-0-0-0-0--0-0-0-0--0-0-0-0--0-0-0-0-|------------------------------------|

************************************

| x   Dead note

************************************ 
Suggest correction
Creating personal tab
Creating personal tab
You can edit any tab online and save it as your Personal.

You can edit, replace or remove any tab part or add personal notes – all changes will be seen only by you.

Personal tabs can be accessed anytime from any device, even offline.
Learn more »
comments
print report bad tab
guest
You may want to rate the tab now too:
select rating
Wanna post a correction for this tab? Suggest correction