Oops, an error
Loading. Please wait.

Billy Talent album tab

version 2
version 2

Album

274 views 3 this week
no commentswrite comment
1 2 3 4 5
3 more votes to show rating
add to favorites
×
Save as Personal and add changes to this tab that will be seen only by you. Learn more ›
×
You can save this tab as Personal to edit and correct it or add notes. All changes will be seen only by you. Learn more »
launch autoscroll
font size
0
reset
how to read this tab
guitar tuner
edit
Autoscroll
slow
fast
+/-
esc
set tempo
stop
Billy Talent
Billy Talent 2001

1. This is How It Goes          
2. Living in the Shadows        
3. Try Honesty          
4. Line & Sinker        
5. Lies                        
6. The Ex                       
7. River Below          
8. Standing in the Rain         
9. Cut the Curtains     
10. Prisoners of Today          
11. Nothing to Lose     
12. Voices of Violence  


1. This is How It Goes  


 [Intro/Verse]

E|----------------------|----|------------------------|
B|----------------------|----|------------------------|
G|----------------------|----|------------------------|
D|----------------------|----|------------0-7-7-0-3-3-|
A|-5-x16-4-x8-7-x6-8-x2-|-x3-|-5-x16-4-x8-0-7-7-0-3-3-|
D|----------------------|----|------------0-7-7-0-3-3-|


 [Chorus]

E|--------10---------10---------5-------------------|
B|--------10---------10---------5-------------------|
G|--------10---------10---------5-------------------|
D|-0-0--0-----8-8--8-----3-3--3---------------------|
A|-0-0--0-----8-8--8-----3-3--3---------------3-----| x4
D|-0-0--0-----8-8--8-----3-3--3-----7-7-5-6-7---5-3-|

 Repeat Verse
 Repeat Chorus
 Repeat Verse
 Repeat Chorus
 

[Bridge]

E|-5-----5-----5-----3-----|----|-5-----5-----5-----3--------------|
B|-6-x16-3-x16-3-x16-1-x16-|----|-6-x16-3-x16-3-x16-1-x8-----------|
G|-7-----4-----3-----2-----|----|-7-----4-----3-----2--------------|
D|-------------------------|----|------------------------0-7-7-0-3-|
A|-------------------------|-x6-|------------------------0-7-7-0-3-|
D|-------------------------|----|------------------------0-7-7-0-3-|

Repeat Chorus


2. Living in the Shadows  


 [Intro/Pre Chorus]

E|---------------------------|
B|-10---8----6---------------|
G|-7----6----7---------------|
D|-x-x8-x-x8-x-x8-8-5-7-7----|
A|-8----7----5----8-5-7-5-x4-| x4
D|----------------8-5-7-0----|


 [Verse]

E|---------------------------|
B|-10~--8~---6~--------------|
G|-7~---6~---7~--------------|
D|-x~---x~---x~---8-5-7-7----|
A|-8~---7~---5~---8-5-7-5-x4-| x3
D|----------------8-5-7-0----|

 Repeat Pre Chorus


 [Chorus]

E|---------------------|
B|---------------------|
G|---------------------|
D|-3----5----8----7----|
A|-3-x8-5-x8-8-x8-5-x8-| x4
D|-3----5----8----0----|

 Repeat Intro
 Repeat Verse
 Repeat Pre Chorus
 Repeat Chorus
 

[Bridge]

E|-5-----3-----------1-----|
B|-6-----5-----6-----3-----|
G|-7-----3-----5-----3-----|
D|-7-x13-5-x13-3-----3-x13-|
A|-5-----3-----3-x13-1-----| x3
D|-------------3-----------|

Repeat Pre Chorus
Repeat Chorus



3. Try Honesty          


 [Intro]

E|-----0------0-------0-------0-------0-------0--------0-------0---|
B|-----2------2-------2-------2-------0-------0--------0-------0---|
G|-------2------2-------2-------2---2---2---2--------4-------6-----|
D|---0------0-------2-------2-----4-------4------4-6-----6-7-----7-|
A|-2-------2------0-------0----------------------------------------|
D|-----------------------------------------------------------------|

E|-----0-------0-------0-------0--------0----0----0----|
B|-----2-------2-------2-------2---0----0----0----0----|
G|-------2-------2-------2-------2-2-x4-2-x4-4-x4-6-x2-|
D|---0-------0-------2-------2-----4----4----6----7----|
A|-2-------2-------0-------0---------------------------|
D|-----------------------------------------------------|


 [Pre Verse]

E|-0----0----|-----------------7-|
B|-2----2----|---5-------------7-|
G|-2----2----|-----6-----------7-|
D|-0-x8-2-x8-|-4-----7-6-7/4-4---|
A|-2----0----|-4-------0---------| x3
D|-----------|-4-------0---------|


 [Verse] – Vary Chord and Riff

E|-----------------7-|
B|---5-------------7-|
G|-----6-----------7-|
D|-4-----7-6-7/4-4---|
A|-4-------0---------| 
D|-4-------0---------|


 [Chorus]

E|-0----0--------------------------------|
B|-2----2--------------------------------|
G|-2----2--------------------------------|
D|-0-x8-2-x8-7----6----4-0-6----4----2-0-|
A|-2----0----4-x3-4-x3-4-0-2-x3-2-x3-2-0-| x4
D|-----------4----4----4-0-2----2----2-0-|

 Repeat Verse
 Repeat Chorus
 

[Bridge]

E|--------------9\------------------|----|---------------------------------------------|----|
B|------5b------7\------5b------2-2-|----|-------------------2---------------------2-2-|----|
G|------5b------7\------5b------2-2-|----|-------------------2---------------------2-2-|----|
D|-4----4--0-------3----3--0----0-2-|----|-4-4-2-4-7-4-2-0-0-2-0-3-3-2-3-5-3-2-0-0-0-2-|----|
A|-4-x4----0-x4----3-x4----0-x4-2-0-|-x2-|-4-4-2-4-7-4-2-0-0-0-0-3-3-2-3-5-3-2-0-0-2-0-|-x2-|
D|-4-------0-------3-------0--------|----|-4-4-2-4-7-4-2-0-0---0-3-3-2-3-5-3-2-0-0-----|----|

E|-----------------------------------------|
B|-----------------------------------------|
G|-----------------------------------------|
D|-3----0----2----3----4----6----7----9----|
A|-3-x4-3-x4-3-x4-3-x4-0-x4-0-x4-0-x4-0-x4-|
D|-3----3----3----3----0----0----0----0----|

 Repeat Intro
 Repeat Chorus w/variation
 

[Outro]

E|-0----0---------------0~-|
B|-2----2---------------2~-|
G|-2----2---------------2~-|
D|-0-x4-2-x4-7----/6----0~-|
A|-2----0----4-x4--2-x4-2~-|
D|-----------4-----2-------|



4. Line and Sinker        


 [Intro – Enters]

E|-|-----------------0-----0-0-|---------------------0----0----|-----------------|
B|-|-----------------2-----2-2-|---------------------2----2----|-----------------|
G|-|------2----------2-----2-2-|----------2----------2-x8-2----|------2----------|
D|-|-4----2-x6-------0---0-0-x-|-0---4----2-x6-------0----x-x8-|-4----2-x6-------|
A|-|-4-x8-0----4p2-0---------2-|---2-4-x8-0----4p2-0------2----|-4-x8-0----4p2-0-|
D|-|-4-------------------------|-----4-------------------------|-4---------------|


 [Verse]

E|-----0-------0------0-------0-|-----0-------0-----0----------|
B|-----2-------2------5-------2-|-----2-------2-----5-------2b-|
G|-----2-------2------6-----2-0-|-----2-------2-----6-----2----|
D|-----------0------------------|-----------0------------------|
A|---0---0-2--------4-----0-----|---0---0-2-------4-----0------| x2
D|-0-----0--------4-----4-------|-0-----0-------4-----4--------|

 
[Pre Chorus]

E|-0----0--0----0----0-0----|
B|-8----10-7----5----7-3----|
G|-0----0--0----0----0-0----|
D|-9-x4-9--7-x9-5-x4-5-4-x9-|
A|-7----7--5----4----4-2----| x2
D|--------------------------|

 
[Chorus]

E|-0-----2-0------|-----------------0----0----|---------------------0----0----|-----------------|
B|-2-----2-2------|-----------------2----2----|---------------------2----2----|-----------------|
G|-2-----2-0------|------2----------2-x8-2----|----------2----------2-x8-2----|------2----------|
D|-0-----0-2--0---|-4----2-x6-------0----x-x8-|-0---4----2-x6-------0----x-x8-|-4----2-x6-------|
A|-0---0-0------2-|-4-x8-0----4p2-0------2----|---2-4-x8-0----4p2-0------2----|-4-x8-0----4p2-0-|
D|-0---0-0--------|-4-------------------------|-----4-------------------------|-4---------------|

 Repeat Verse
 Repeat Pre Chorus
 Repeat Chorus
 

[Bridge]

E|-------------------------------------------------|
B|-----------------------------5----3--------------|
G|-----------------------------x----x--------------|
D|---------------------------0-5-x4-4-x3-----------|
A|-2-2----4--------5-7-9-7-5-0-4----2----4-5-4-2\0-|
D|-2-2--5---5-0-0--0-0-0-0-0-----------------------|

Repeat Chorus



5. Lies                        


 [Intro/Chorus]

E|-----------------------0---------|---------------------------0-0-|
B|-----------------------1h3-------|---------------------------3-0-|
G|-----------------------0---5-5-4-|-----------------------0h2-2-2-|
D|-9---9-10-9---7------2-------2-2-|-9---9-10-9---7------2-----2-2-|
A|-------------------3---------2-2-|-------------------3-------0-0-| x2
D|---5---7----0---0------------2-2-|---5---7----0---0--------------|

 
[Verse]

E|-0-------0---0---0----0----0----|--------------------------|
B|-0---5---7---5---8--8-7--7-5--5-|-5-5b-5-5b-5-5b-5-5b-5-5b-|
G|-0-------0---0---0----0----0----|-4-4--4-4--4-4--4-4--4-4--|
D|-2---2---7---5---9----7----5----|-2-2--2-2--2-2--2-2--2-2--|
A|-3---2---5---3---7----5----3----|-2-2--2-2--2-2--2-2--2-2--| x2
D|-----2--------------------------|-2-2--2-2--2-2--2-2--2-2--|


 [Chorus]

E|------------------------------|----------------------0-0-|
B|------------------------------|----------------------3-0-|
G|----------------5-5\7-5---5---|----------------0-0-2-2-2-|
D|-9-9-10-9-0-7-0-5-5\7-2-2-2-2-|-9-9-10-9-0-7-0-5-5-5-2-2-|
A|-5-5-7--0-0-0-0-3-3\5-2-2-2-2-|-5-5-7--0-0-0-0-3-3-3-0-0-|
D|-5-5-7--0-0-0-0-------2-2-2-2-|-5-5-7--0-0-0-0-----------|

 Repeat Verse
 Repeat Chorus
 

[Bridge]

E|---------------------------------------|
B|---8-8---8-8---8--7--5-4-5-------------|
G|---0-0---0-0---0--0--0-0-0--11---11----|
D|-0-9-9-0-9-9-0-9--7--5-4-5--9----10----|
A|-0-7-7-0-7-7-0-7--5--3-2-3--9-x8-10-x8-|
D|-0-----0-----0--------------9----10----|


6. The Ex                       


 [Intro]

E|---------------------------------|-----------------------------------4----|
B|---------------------------------|-----------------------------------6----|
G|---------------------------------|-----------------------------------4----|
D|-7---7---6---6---7---7---6---6---|-2-x5-4-2-0------------------------6-x8-|
A|---------------------------------|-0----0-0-0-2-x5-4-2-0-2-x5-4-2-0--4----| x2
D|---4---4---4---4---0---0---0---0-|------------0----0-0-0-2----0-0-0-------|


 [Verse]

E|---------------------------------------------------------------------------------------4----|
B|---------------------------------------------------------------------------------------6----|
G|---------------------------------------------------------------------------------------4----|
D|-7----6----4----7----6----0----2-x5-4-2-0------------2-x5-4-2-0------------------------6-x8-|
A|-4-x4-4-x2-4-x2-0-x4-0-x2-0-x2-0----0-0-0-2-x5-4-2-0-0----0-0-0-2-x5-4-2-0-2-x5-4-2-0--4----| x2
D|-4----4----4----0----0----0---------------0----0-0-0------------0----0-0-0-2----0-0-0-------|

 
[Pre Chorus]

E|---------------------|
B|----------------5----|
G|----------------6----|
D|-7----9----11---6-x8-|
A|-4-x8-7-x8-7—x8-4----|
D|-4----6----7---------|

 
[Chorus]

E|--------------|----|-------------0-|
B|-7------------|----|-------------0-|
G|-7—7/6--------|----|-------------4-|
D|-7—7/6--4—4/0-|----|-2--2/4--0-0-2-|
A|-5—5/4--4—4/0-|-x3-|-2--2/4--0-0---|
D|--------4—4/0-|----|-2--2/4--0-0---|

 Repeat Verse
 Repeat Pre Chorus
 Repeat Chorus
 

[Bridge]

E|-------------------------------------------------------------------|
B|-----0-------0-------0-------0-------------------------------------|
G|---6-------4-------2-------1---3-----4-------4--------4-------4----|
D|-7-----7-6-----6-4-----4-3---------4---4---4---4----3---3---3---3--|
A|---------------------------------5-------5--------4-------4--------|
D|-------------------------------------------------------------------|

E|--------------------------------------------------4----|
B|-----0-------0-------0-------0--------------------6----|
G|---6-------4-------2-------1---3-----4-------4----4----|
D|-7-----7-6-----6-4-----4-3---------4---4---4---4--6—x8-|
A|---------------------------------5-------5--------4----|
D|-------------------------------------------------------|

Repeat Pre Chorus
Repeat Chorus


7. River Below          


 [Intro]

E|---------------------------------|
B|---------------------------------|
G|---------7-------8-7-5-----------|
D|-5-5-8-5---5-8-5-0-----8-7-5-----|
A|-5-5---5---5---5-0-----------8-6-|
D|-5-5---5---5---5-0---------------|


 [Verse]

E|----------------3-|----|------------------|------2----|
B|----------------4-|----|------------------|-3----1----|
G|----7-----2-3-5-5-|----|----7-------------|-3----2----|
D|-8-----8--0-----5-|----|-8-----8--7-5---7-|-3-x8-0----|
A|-5--5--5--0-----3-|-x2-|-5--5--5--3---8-3-|-1----0-x8-|
D|-5--5--5--0-------|----|-5--5--5--3-----3-|------0----|

 
[Pre Chorus]

E|----------------------------------------------------------2~-|
B|-----5--------8-------3--------7-------5-------8-------3--1~-|
G|-----5--------8-------3--------7-------5-------8-------3--2~-|
D|---5--------8-------3--------7-------5-------8-------3----0~-|
A|-3------3/6-----6\1------1/5-----5\3-----3/6-----6\1---1--0~-|
D|----------------------------------------------------------0~-|

 
[Chorus]

E|-----------------------------------------|
B|----------------3----4-------------------|
G|----------------3----5-------------------|
D|-5----0----1----3-x8-5-x8-5----0----1----|
A|-5-x8-0-x8-1-x8-1----3----5-x4-0-x4-1-x4-|
D|-5----0----1--------------5----0----1----|

 Repeat Intro
 Repeat Verse
 Repeat Pre Chorus
 Repeat Chorus
 

[Bridge]

E|-------------------|----|------|
B|-------------------|----|-7----|
G|---------7-------8-|----|-7----|
D|-5-5-8-5---5-8-5-0-|----|-7----|
A|-5-5---5---5---5-0-|-x4-|-5-x8-|
D|-5-5---5---5---5-0-|----|-0----|

 Repeat Chorus
 

[End On]

E|---------------------------------|
B|---------------------------------|
G|---------7-------8-7-5-----------|
D|-5-5-8-5---5-8-5-0-----8-7-5-3-1-|
A|-5-5---5---5---5-0-----------0-0-|
D|-5-5---5---5---5-0-----------0-0-|


8. Standing in the Rain         


 [Intro/Chorus]

E|--------------------------------------------|
B|-3-3--------------------------5-5-----------|
G|-4-4--------------------------5-5-----------|
D|-4-4-0-2--4-5-4--4-0-5-4-2-0--5-5--0-4--4-0-|
A|-2-2-0-2--4-5-4--4-0-5-4-2-0--3-3--0-4--4-0-| x2
D|-----0-2--4-5-4--4-0-5-4-2-0-------0-4--4-0-|


 [Verse]

E|-0~-|-|------0-|-|-------|
B|-3~-|-|------3-|-|-------|
G|-0~-|-|--------|-|-------|
D|-4~-|-|---0----|-|-2-4-5-|
A|-2~-|-|-4------|-|-2-4-5-|
D|----|-|--------|-|-2-4-5-|


 [Pre Chorus]

E|-------------------------------|----|---------------------|
B|-------7-7-7---5-5---3---------|----|-------7-7-7----2----|
G|-------7-7-7---6-6---4---------|----|-------7-7-7----0----|
D|-4-4-0-7-7-7-0-6-6-0-4-2-2-4-5-|----|-4-4-0-7-7-7-0--2-x8-|
A|-4-4-0-5-5-5-0-4-4-0-2-2-2-4-5-|-x3-|-4-4-0-5-5-5-0--1----|
D|-4-4-0-------0-----0---2-2-4-5-|----|-4-4-0-------0-------|

 Repeat Chorus
 

[Post Chorus]

E|----------------------------------|
B|-----3--------2-------------------|
G|-----0----------------------------|
D|---4---4----2---2-----4-0-----9---|
A|-2-------0----------0-------5-----| x2
D|------------------0-------5-----0-|

 Repeat Verse
 Repeat Pre Chorus
 Repeat Chorus
 

[Solo]

E|-0-0-0-0------------------------|-0-0-0-0--------------------------|
B|-7-7-5-3---3-2b---------------3-|-7-7-5-3---3-2b-------------------|
G|-7-7-6-4-0------2-0-------2-0---|-7-7-6-4-0------2-0---------------|
D|--------------------4-0---------|--------------------4-0---2-2-4-5-|
A|------------------------2-------|------------------------2-----4-5-|
D|--------------------------------|--------------------------2-2-4-5-|

 Repeat Pre Chorus
 

[Bridge]

E|---------------------------------|----|-----------|
B|---------------------------------|----|-----------|
G|---------------------------------|----|-----------|
D|-4-4-4---------------------------|----|-5-5-5-5---|
A|-2-2-2-0-2-2-4-5-4-4-4-4-5-4-2-0-|-x3-|-3-3-3-3-4-|
D|-------0-2-2-4-5-4-4-4-4-5-4-2-0-|----|---------4-|

Repeat Chorus


9. Cut the Curtains     


 [Intro/Pre Chorus]

E|-----------------|-----------------|
B|-----------------|-----------------|
G|-----------------|-----------------|
D|-----------------|-----------------|
A|-0-0-7-0-0-7-0-7-|-5-5-7-3-3-7-3-7-| x2
D|-0-0-7-0-0-7-0-7-|-5-5-7-3-3-7-3-7-|

E|-----------------|-----------------|
B|-----------------|-----------------|
G|-----------------|-----------------|
D|-----------------|-----------------|
A|-0-0/7-0-0/7-0/7-|-5-5/7-3-3/7-3/7-| x2
D|-0-0/7-0-0/7-0/7-|-5-5/7-3-3/7-3/7-|


 [Verse]

E|-------------|----|-------------|
B|-------------|----|-------------|
G|-------------|----|-------------|
D|-0~---5~--3~-|----|-0~---5~--1~-|
A|-0~---5~--3~-|-x2-|-0~---5~--1~-|
D|-0~---5~--3~-|----|-0~---5~--1~-|

 Repeat Pre Chorus


 [Chorus]

E|---------------------------------|----------------------------------|
B|---------------------------------|----------------------------------|
G|---------------------------------|----------------------------------|
D|-0-0-7-0-0-7-0-7-5-5-7-3-3-5-1-1-|-0-0-7-0-0-7-0-7-5-5-3-5-7-7-10-7-|
A|-0-0-7-0-0-7-0-7-5-5-7-3-3-5-1-1-|-0-0-7-0-0-7-0-7-5-5-3-5-7-7-10-7-|
D|-0-0-7-0-0-7-0-7-5-5-7-3-3-5-1-1-|-0-0-7-0-0-7-0-7-5-5-3-5-7-7-10-7-|


 [Post Chorus]

E|---------------------------------|
B|---------------------------------|
G|---------------------------------|
D|-0----------7-6--5-5-8-3-3-7-1-5-|
A|-0--5-7-5-3-7-6--5-5---3-3---1---|
D|-0----------7-6--5-5---3-3---1---|

 Repeat Verse
 Repeat Pre Chorus
 Repeat Chorus
 

[Solo]

E|---5------------------------------------------------------------------------------------------------------|
B|-6---6-------5-5b7-5--------------------------5-5b7-5-----------------------------------------------------|
G|-------7---7---------7-5-7----------7-------7---------7-5-7----------------------------------7---7---7----|
D|---------7------------------5h6h7-----7---7-----------------5h6h7-5---------5--------8-6h7-7---7---7-7-x8-|
A|----------------------------------8-----8---------------------------8-8—7h8----8-6h7----------------------|
D|----------------------------------------------------------------------------------------------------------|

Repeat Intro
Repeat Chorus
Repeat Post Chorus


10. Prisoners of Today          


 [Intro/Pre Chorus]

E|-----------------------------------|-------------------------------|
B|-----------------------------------|-------------------------------|
G|---8-----7-----5-------5---5---5---|-7-----5-----3-------5---5---5-|
D|-5---5-5---5-5---5-5-8---7---5---3-|---3-3---3-3---3-3-7---5---3---|
A|-----------------------------------|-------------------------------|
D|-----------------------------------|-------------------------------|

E|----------------------------|----------------------------|
B|----------------------------|----------------------------|
G|-2-2-2-5-2-2-5-2-2-5-2-2-5b-|-2-2-2-5-2-2-5-2-2-5-2-2-5b-|
D|-0-0-0-0-0-0-0-0-0-0-0-0-0--|-3-3-3-3-3-3-3-3-3-3-3-3-3--|
A|----------------------------|----------------------------|
D|----------------------------|----------------------------|


 [Intro Pt 2/Chorus]

E|-----------------------------------|---------------------------------|-------------------------------|
B|-----------------------------------|---------------------------------|-------------------------------|
G|-8-8-8-7-7-7-5-5-5-----------------|-7-7-7-5-5-5-3-3-3---------------|-2-2-2-5-2-2-5-2-2-5-2-2-5b----|
D|-5-5-5-5-5-5-5-5-5-8-8-8-7-7-7-5-5-|-3-3-3-3-3-3-3-3-3-7-7-7-5-5-3-3-|-0-0-0-0-0-0-0-0-0-0-0-0-0-0-0-|
A|-5-5-5-5-5-5-5-5-5-5-5-5-5-5-5-5-5-|-3-3-3-3-3-3-3-3-3-3-3-3-3-3-3-3-|-0-0-0-0-0-0-0-0-0-0-0-0-0-0-0-|
D|-5-5-5-5-5-5-5-5-5-5-5-5-5-5-5-5-5-|-3-3-3-3-3-3-3-3-3-3-3-3-3-3-3-3-|-0-0-0-0-0-0-0-0-0-0-0-0-0-0-0-|

E|-------------------------------|
B|-------------------------------|
G|-2-2-2-5-2-2-5-2-2-5-2-2-5b----|
D|-3-3-3-3-3-3-3-3-3-3-3-3-3-3-3-|
A|-3-3-3-3-3-3-3-3-3-3-3-3-3-3-3-|
D|-3-3-3-3-3-3-3-3-3-3-3-3-3-3-3-|


 [Verse]

E|-----------|----|-----------3-3-----------5-5-|----|
B|-----------|----|-----------3-3-----------4-4-|----|
G|-----------|----|-----------3-3-----------5-5-|----|
D|-----------|----|-----------------------------|----|
A|-3-3---5-5-|-x8-|-3-3---5-5-----3-3---5-5-----|-x4-|
D|-----------|----|-----------------------------|----|

 Repeat Pre Chorus


 [Pre Verse]

E|-----3-3-----------5-5-|
B|-----3-3-----------4-4-|
G|-----3-3-----------5-5-|
D|-----------------------|
A|-5-5-----3-3---5-5-----| x2
D|-----------------------|

 Repeat Verse
 Repeat Pre Chorus
 Repeat Chorus
 

[Bridge]

E|---------------------|
B|-4----3----6----8----|
G|-5----3----7----8----|
D|-5-x5-3-x5-7-x5-8-x5-|
A|-3----1----5----6----|
D|---------------------|

Repeat Pre Chorus
Repeat Chorus


11. Nothing to Lose     


 [Verse]

E|---------------------------------------0---0-----------------0-|
B|-------9-------0-------0-------0-----0---0---------4-------4---|
G|-----6-------8-------4-------4-----0-----0-----------0---4-----|
D|---5-------7-------3-------3---------------------4-----3-------|
A|-7-------9-------5-------5-------3-----------3/2---------------|
D|---------------------------------------------------------------|

 
[Chorus]

E|---------------------------------------------------------------------------------|
B|-------5-------5-------8-------8-------7-------7-------3-------3-------8-------8-|
G|-----0-------0-------9-------0-------0-------0-------0-------0-------0-------0---|
D|---5-------5-------9-------9-------7-------7-------4-------4-------9-------9-----|
A|-3-------3-------7-------7-------5-------5-------2-------2-------7-------7-------|
D|---------------------------------------------------------------------------------|

E|----------------------------------------------|
B|---------12---------12--------10--------10-7~-|
G|-------0----------0---------0---------0----0~-|
D|----12---------12--------10--------10------7~-|
A|-10---------10---------9---------9---------6~-|
D|----------------------------------------------|


[Chorus Variation/Bridge]

E|-------------------------------------------|
B|-5----8----7----3----8----12----10----7----|
G|-0----0----0----0----0----0-----0-----0----|
D|-5-x8-9-x8-7-x8-4-x8-9-x8-12-x8-10-x8-7-x8-|
A|-3----7----5----2----7----10----9-----6----|
D|-------------------------------------------|


12. Voices of Violence  


 [Intro/Chorus]

E|-----5-5-|----|-----5-5-|----|---------|----|---------|----|
B|-----6-6-|----|-----6-6-|----|-----5-5-|----|-----3-3-|----|
G|-----7-7-|----|-----7-7-|----|-----5-5-|----|-----3-3-|----|
D|-----5-5-|----|-----0-0-|----|-5-5-5-5-|----|-3-3-3-3-|----|
A|-5-5-5-5-|-x2-|-0-0-0-0-|-x2-|-3-3-3-3-|-x2-|-1-1-1-1-|-x2-|
D|-5-5-5-5-|----|-0-0-0-0-|----|---------|----|---------|----|


 [Verse]

E|---------------------|------------------------|-------------------------------|---------------|
B|-5----6----8----6----|-x-4----6----8----10----|-x-5----6----8----6------------|-5----5-5-5----|
G|-x----x----x----x----|-x-x----x----x----x-----|-x-x----x----x----x------------|-6----6-7-6----|
D|-5-x3-7-x3-8-x3-7-x3-|-x-5-x3-7-x3-8-x3-10-x3-|-x-5-x3-7-x3-8-x3-7-x3-8-7-5---|-7--------7----|
A|-4----5----7----5----|-x-4----5----7----8-----|-x-4----5----7----5----------8-|-7-x6-----7-x6-| 
D|---------------------|------------------------|-------------------------------|-0--------0----|

 Repeat Chorus
 Repeat Verse
 Repeat Chorus

 
[Bridge]

E|--------------------------|
B|-6-5--5-6-5--5-6--6-8-6-6-|
G|-7-6--6-7-6--6-7--7-9-7-7-|
D|-8-7--7-8-7--7-8--8---8-8-|
A|--------------------------|
D|--------------------------|

Repeat Chorus



************************************

| x  Dead note
| h  Hammer-on
| p  Pull-off
| b  Bend
| /  Slide up
| \  Slide down
| ~  Vibrato

************************************

            
            
Suggest correction
Creating personal tab
Creating personal tab
You can edit any tab online and save it as your Personal.

You can edit, replace or remove any tab part or add personal notes – all changes will be seen only by you.

Personal tabs can be accessed anytime from any device, even offline.
Learn more »
Give kudos to tab author, rate the tab!
1 2 3 4 5
comments
print report bad tab
guest
You may want to rate the tab now too:
select rating
Wanna post a correction for this tab? Suggest correction