Oops, an error
Loading. Please wait.

Billy Talent Ii Bass Tab

version 1
version 1

Album

5,081 views 9 this week
no commentswrite comment
1 2 3 4 5
accurate
x 9
add to favorites
launch autoscroll
font size
0
reset
guitar tuner
Autoscroll
slow
fast
+/-
esc
set tempo
stop
Help us to improve Ultimate-Guitar.com Take our survey!
×
Contributor
Difficulty
3D music 202
advanced
This took me a heck of a long time
to put together so please rate it 
and tell me if theres any mistakes

DEVIL IN A MIDIGHT MASS 

Tuning: Drop D (DADG)

Intro (Come in at 0:05)
 |             |                               x4|
G|-------------|---------------------------------|
D|-------------|---------------------------------|
A|-------------|-5-----------8---7---------------|
D|-7-3-0-5-7-8-|---0-8-0-7-0---0---0-7-3-0-5-7-8-|

Verse
 |                        x4|
G|--------------------------|
D|--------------------------|
A|--------------------------|
D|-0--0-0--0-0--7-3-0-5-7-8-|
  1. A Devil in a Midnight Mass
  2. He prayed behind stained glass
  3. A memory of Sunday class
  4. Resurrected from the past

Prechorus
 |                                         x2|
G|-------------------------------------------|
D|-------------------------------------------|
A|-----------------------8---7-------------3-|
D|-8-----7----0--8-0-7-0---0---0-7-3-0-5-7---|
  1. Hold your breath and count to four
  2. Pinky swears don’t work no more

G|---------------------------------------------------|
D|---------------------------------------------------|
A|---------------------------------------------------|
D|-8-----7----0-----3------8------7------7-3-0-5-7-8-|
  1. Footsteps down my hallway floor, getting closer to my door
     I was alive, but now I’m singing

Chorus
G|-----------------------------------------------------|
D|-----------------------------------------------------|
A|-----------------------------------------------------|
D|-0---0--0--0---0--0--0-0-0-3---3--3--3---3--3--3-3-3-|
  1. Silent night for the rest of my life, Silent night for the rest of my life

G|-------------------------------------------------------|
D|-------------------------------------------------------|
A|-------------------------------------------------------|
D|-5---5--5--5---5--5--5-5-5-8---8--8--8--7--7-3-0-5-7-8-|
  1. Silent night at the edge of your knife, (Guilty Guilty) won’t make it right

G|-----------------------------------------------------|
D|-----------------------------------------------------|
A|-----------------------------------------------------|
D|-0---0--0--0---0--0--0-0-0-3---3--3--3---3--3--3-3-3-|
  1. Silent night for the rest of my life, Silent night at the edge of your knife

G|---------------------------------------------------|
D|---------------------------------------------------|
A|---------------------------------------------------|
D|-8--8---7--7---5--5---3--3----7-7-7-7-7-7-7-7-7-7--|
  1. (You’re Guilty)

Preverse:
 |                               x2|
G|---------------------------------|
D|---------------------------------|
A|-5-----------8---7---------------|
D|---0-8-0-7-0---0---0-7-3-0-5-7-8-|

Order:
Intro
Verse
Prechorus
Chorus
Preverse
Verse
Prechorus
Chorus
(Long pause during whispering)
Preverse (x4)

-----------------------------------------------------------------------------

Red Flag  

Tuning: Drop-D

Intro/Chorus x1
G|----------------------------------------------------------------|
D|----------------------------------------------------------------|
A|-0-0-0-0-3-03-03---------------3-3-3-3--------------------------|
D|----------------5-5-5-5-3-03-03-------5-35-35--2-2-2-2-64-64-6--|

Verse(Part A) x1
G|-----------------------------------------|
D|------------------------2222-------------|
A|-0000--2222--0000--2222------------------|
D|-----------------------------22----------|

Part B x2
G|---------------------------------------------|
D|---------------------------------------------|
A|--0000-3-3-3-3-3--2222-----------------------|
D|-----------------------2-2-2-2-2-------------|

Pre-Chorus x2        Play 1st Time  Play 2nd Time
G|--------------------------------|----------------------------------|
D|--------------------------------|----------------------------------|
A|--------5(ring)-----------------|----------------------------------|
D|-3(ring)-------555-555-7(ring)--|-3(ring)-0(ring)-555-555-2(ring)--|

Chorus x2
Verse x4 (Play Part B Only)
Pre-Chorus x2
Chorus x2

Bridge x4 Part A
G|----------------------------------------|
D|----------------------------------------|
A|-00-00000----------55-55555-------------|
D|----------55-55555-----------33-3333----|

Part B: Play x2                          Play After 2nd time
G|---------------------------------------|-------------------|
D|---------------------------------------|---7-5-------------|
A|-00000000------------------------------|-8-----7-5-7-5-3-0-|
D|---------55555555500000000033333333333-|-------------------|

Drum Solo (Wait for at least 10 seconds.)
Chorus x3

Ending
G|------------------------------------|
D|------------------------------------|
A|-0-0-0-0----------------------------|
D|------------------------------------|

-----------------------------------------------------------------------------

This Suffering 

Tuning: Drop-D

Intro:-Part1:x2            
G|-----------------------|
D|-0---------(3-2-0------|  The Brackets are the Guitar Intro
A|---3-0----------3-0-)--|  Alternative on the bass.
D|-------5-0-------------|

Part2:x2
G|---------------------------|------------|
D|-0-0-0-00------------------|--0---------| 
A|----------3-3-3-33---------|----3-0-----| 
D|-------------------5-5-5-55|-------5-0--|

Verse- Part1:x2
G|------------------------------------|
D|-0(ring)-----------------0----------|
A|----------3(ring)----------3-0------|
D|-------0(ring)----5-5-5-55------5-0-|

Part2:x2
G|-----------------------------------|
D|-0-0-0-0-----------------0---------|
A|---------3-3-3-3-----------3-0-----|
D|-----------------5-5-5-55------5-0-|

Pre-Chorus:x1
G|-------------------------------------|
D|-------------------------------------|
A|-1(ring)-----------------------33333-|
D|--------0(ring)-5(ring)-3-3-3-3------|

Chorus x1                         Play 8th notes after 2nd time
G|--------------------------------------------------|---------|
D|--------------------------------------------------|---------|
A|-1111111111111-55555555555------------------------|-3(ring)-|
D|--------------------------55555555555-333333333333|---------|

Post Chorus:x Part 2 Intro:x1
Verse-Pt1:x2
      Pt2:x2

Pre-Chorus x1
Chorus:x1
Bridge:x1
G|--------------------------------------|
D|--------------------------------------|
A|-5-5-----0-0------1-1-----------------|
D|----------------------3333333-2222222-|

G|-----------------------------------------------------------|
D|-----------------------------------------------------------|
A|-55-0-55-0-55-0--00--00--00--11--11--11-11-----------------|
D|--------------------2--2--2-----3--3---3---3333333-2222222-|

G|------------------------------------------------------------------------|
D|------------------------------------------------------------------------|
A|-55555555-0-55555555-0000000-0000000-1111111-1111111--------------------|
D|----------------------------2---------------3-------333333333-222222222-|

Post Bridge:x2- Play the post chorus but the 1st time let 
                every note ring then the second time play
                regularly.
Chorus:x3
Outro: Play Intro x1

-----------------------------------------------------------------------------

Worker Bees 

Tuning:Drop D

Intro x2
G|------------------------------------|
D|------------------------------------|
A|-3----3---3----3---3----3---3----3--|
D|---55---5---55---5---55---5---55--5-|

Verse: Play Intro:1x

Pre Chorus:2x           Play After 1x           Play After 2x
G|----------------------|-----------------------|-------------------|
D|----------------------|-----------------------|-------------------|
A|-6666-3333-55-66-8888-|-----------33-66-5555--|------2222-33-55-6-|
D|----------------------|-6666-5555-------------|-6666--------------|

Chorus:x3                      Play After 3x
G|-----------------------------|------------------------------|
D|------------------------555--|------------------------------|
A|-888-666-555-----------------|-33---3-11---1----------------|
D|------------666-55-6-5-5-----|----5------3---6-6-6-6-6-6666-|

Verse:x2
Pre-Chorus:x2
Chorus:x3

Post Chorus:2x
G|-------------------------------------------------------------|
D|-------------------------------------------------------------|
A|---------------11-2-1-----------------33---33----------------|
D|-1111-0-1111-66------6-5--1111-0-1111----5----5--55-00-55-00-|

G|----------------------------------|
D|----------------------------------|
A|---11-2-1----33---3-11--1---------|
D|-66------6-5----5------3--6-6-6-6-|

Bridge:2x                                                Play After 1x
G|------------------------------------------------------|------------------|
D|------------------------------------------------------|-5----5---5---5---|
A|-3----3---3----3---5----5---5---5---6---6---6----6----|---55---5---55--5-|
D|---55---5---55---5---88---8---88--8---88--8---88---88-|------------------|

Play After 2x
G|----------|
D|-55555555-|
A|----------|
D|----------|

Post Chorus:2x

-----------------------------------------------------------------------------

Pins And Needles 

Tuning: Drop D

Intro:2x                                                   
G|---------------------------------------|
D|---------------------------------------|
A|---------------------------------------|
D|-55--5--0(ring)--3(ring)-11-1-0(ring)--|

Verse:2x                   
G|---------------------------------------------------------------------|
D|---------------------------------------------------------------------|
A|---------------------------------------------------------------------|
D|--5(ring)--0(ring)--1(ring)--0(ring)--5(ring)--0(ring)--11--1-00--0--|

Chorus:1x                                                                   
G|--------------------------------------------------------------------|
D|--------------------------------------------------------------------|
A|-33-3------------------------11-1--33-3------------------------11-1-|
D|------33-3--55-5--00-0--11-1------------33-3--55-5--00-0--11-1------|

Chorus. Cont: Do Not Play in Chorus After Bridge
G|-----------------|
D|-----------------|
A|-3(ring)---------|
D|---------3(ring)-|

Post-Chorus: Play Intro 1x

Bridge:2x
G|-----------------------------------------|
D|-----------------------------------------|
A|-----------------------------------------|
D|-11111111-55555555-33-3-3-3--1-1-1-1-0-1-|

Chorus:1x

Chorus Alteration:1x
G|-------------------------------------|
D|-------------------------------------|
A|-33-3-------------------------11-1---|
D|------33-3--55-5--00-0--11-1---------|


Ending:1x
G|------------------------------|
D|------------------------------|
A|-3(ring)----------------------|
D|-----------3(ring)----5(ring)-|

-----------------------------------------------------------------------------

Fallen Leaves 

Tuning: Drop D

Intro:1x                                                   
G|----------------------------------------------|
D|----------------------------------------------|
A|-3-3-1----------------------------------------|
D|-------5-5-55-6-5-3-1--11-6-6h5-3-3h2-1-1-3-5-|

Verse:2x                    Play After 2x
G|--------------------------|-----------------------------------------|
D|--------------------------|-----------------------------------------|
A|-3(ring)-----6(ring)------|-3333----1111----------------------------|
D|--------5-5-1-------5-5-1-|-----6666----1111--666-5-333-2-111-3-555-|

Pre-Chorus:1x
G|---------------------------------------|
D|---------------------------------------|
A|-3333------1111---------------22222222-|
D|------6666------1111--66666666---------|

Chorus:2x
G|-------------------------------------------|
D|-------------------------------------------|
A|-3-3-1-------------------------------------|
D|-------5-55555-0-1-11-6-6h5-3-3h0-1-1-3-5--|

Post Chorus: Play Verse 2x
Verse:2x
Chorus:2x

Bridge:2x                         Play After 1x  Play After 2x
G|----------------------------------|-----------|----------------|
D|----------------------------------|-----------|----------------|
A|-3333-----------------------------|-3333-1111-|-3---3-2-1---1--|
D|------55555555-3-0-1111-3333-6666-|-----------|---5-------3----|

Post Bridge:1x
G|----------------------------------------------------------------|
D|----------------------------------------------------------------|
A|---------3--66-----------3--66---------33336666-----------------|
D|-3--55-----------3--55---------33335555--------5555555522222222-|

Chorus:4x

Ending:1x
G|------------|
D|------------|
A|-3(ring)----|
D|------------|

-----------------------------------------------------------------------------

Where Is The Line 

Tuning: Drop D

Intro:1x
G|--------------------------------------------------------------|
D|--------------------------------------------------------------|
A|-2--4--5-------------------------2--4--5----------------------|
D|----------0--5-5--2-2--5-5--2-2-----------0--5(ring)--2(ring)-|

Chorus:1x
G|----------------------------------------------------------|
D|-----------------44-55-44-2------------------222----------|
A|---555--5555----------------22-44-55-44-2-00--------------|
D|-00---00-----2222--------------------------------44444444-|

Verse:2x
G|----------------------------------------------222--2222-|
D|-----------------44-2-----------22-0--------------------|
A|---555--5555-----------------22------2222-2-00--000-----|
D|-00---00------22------2222-2----------------------------|

Pre-Chorus:1x
G|-------------------------------------------------------------------------|
D|-------------------------------------------------------------------------|
A|--------------------22222222-44444444-------------------22222222-0(ring)-|
D|-22222222-555555555-------------------22222222-55555555------------------|

Chorus:2x
Verse:2x
Pre-Chorus:1x
Chorus:2x

Bridge:2x
G|------------------------------------------------------------------------|
D|------------------------------------------------------------------------|
A|--2222-4h5h4-----------------------------------------------00-0-0-0-----|
D|-------------2222-4h5h4-55-5-5-5-0-0-0-0--55555555-22222222---------5-4-|

Post Bridge: Play Intro
Chorus:2x

Ending Chorus:2x
G|----------------------------------------222--2222-|
D|--------------------------------------------------|
A|-55555555555-77777777777-222222222222-00--00------|
D|--------------------------------------------------|

Ending:1x
G|-----------|
D|-----------|
A|-----------|
D|-0(ring)---|

-----------------------------------------------------------------------------

Covered In Cowardice 

Tuning: Drop D

Intro:1x                                                   Play After 2x
G|------------------------------------------------------------------|-----|
D|--------------------------------------------------1-1-1-1-1-1-1-1-|-----|
A|-----------------5-5-5-5-5-5-5-5--111-11-11-11-1-1----------------|-333-|
D|-555-55-55-55-5-5-------------------------------------------------|-----|

Verse:Play Intro 2x
Pre Chorus:2x                         Play After 2x
G|------------------------------------|---------|
D|------------------------------------|---------|
A|-33333333-66666666------------------|---------|
D|------------------55555555-33333333-|-3(ring)-|

Chorus:2x
G|-----------------------------------------------|
D|-----------------------------------------------|
A|-----1(bend)-----1---------1(bend)-------------|
D|-5555--------5-3---0--5555-------0(ring)-00----|

                   Play After 1x       Play After 2x                      
G|-----------------|-------------------|------------------|
D|-----------------|-------------------|------------------|
A|---------33333333|-----1(bend)-------|------------------|
D|-11111111--------|5555--------3(ring)|-5555555333333333-|

Chorus cont: 
|------------------------------|
|------------------------------|
|---------3333333----1(bend)---|
|-1111111-------5555--0(ring)--|

Post Chorus: Play Intro 1x
Verse:2x
Pre-Chorus:2x
Chorus:2x

Bridge:2x
G|-------------------------00003333-------------------------------------|
D|-------------000011113333------------0h2(ring)------------------------|
A|-----00001111--------------------3333-------------0h1(ring)-----------|
D|-5555----------------------------------------5555--------0(ring)-1111-|

Post Bridge:1x
G|----------------------------------|
D|----------------------------------|
A|------------------1---------------|
D|--5-------0(ring)---------1(ring)-|

Chorus:2x
Outro: Pt1:2x
G|-----------------------------------|
D|-----------------------------------|
A|---------33333333------------------|
D|-11111111--------55555555333333333-|

Pt2:2x
G|----------------------|---------|
D|----------------------|---------|
A|-----1(bend)-----1----|---------|
D|-5555--------5-3---0--|-5(ring)-|

-----------------------------------------------------------------------------

Surrender

Tuning: Drop-D

Intro:1x
G|-----------------------------------------|
D|-------555555---------3-2-0--------------|
A|-000000-------0-5-0-5-------2-3333-------|
D|-----------------------------------2222--|

Verse:4x                                 Play after 2x
G|---------------------------------------|---------------------------|
D|---------------------------------------|---------3-2-0-------------|
A|-0-(ring)-------5(ring)-3(ring)--------|-0-5-0-5-------2-3333------|
D|---------5(ring)---------------2(ring--|----------------------2222-|

Chorus x2 
G|--------------------------------------------|--------------------|
D|--------------------------------------------|--------------------|
A|--------------- 0000000(55555555)-----------|------------5(ring)-|
D|--33333335555555--------00000000------------|-3333355555---------|

Post Chorus: Play Intro x1
Verse:2x
Chorus:2x
Bridge:2x Part 1
G|-------------------------------------------------------------|
D|-------------------------------------------------------------|
A|-0000000111111111----------------0000000111111111-5-555-33---|
D|-----------------333333335555555---------------------------2-|

Part:1x
G|------------------------------------------------------|
D|------------------------------------------------------|
A|-5-555-33---5-555-33---5-555-3-2----------------------|
D|----------2----------2-----------3(ring)--------------|

Post Bridge:3x
G|---------------------------------------|
D|---------------------------------------|
A|------------------0(ring)--------------|
D|--3(ring)-5(ring)--------0(ring)-------|
Chorus x7 
Outro:1x
G|---------------------------------------|
D|---------------------------------------|
A|----5(ring)-3(ring)-2(ring)-0(ring)----|
D|---------------------------------------|

-----------------------------------------------------------------------------

Navy Song 

Tuning:Drop D

Intro:1x                                                   
G|-----------------------------|
D|-----------------------------|
A|--3(ring)----0(ring)--000000-|
D|-----------------------------|

Verse:2x                    
G|------------------------------------|
D|------------------------------------|
A|------------------------------------|
D|-5--5-5-5-5-5-(slide)-2--2-2-2-2-2--|

Post-Verse:4x  Play 2x After
G|------------|---------------------|
D|------------|-3/7\--/3\7\---------|
A|-3333333333-|-----0------00000000-|
D|------------|---------------------|

Verse:2x

Pre-Chorus:1x 
G|------------------------------------------------------------------|
D|------------------------------------------------------------------|
A|-3-3-3-3-3-3-3-3-0-0-0-0-0-0-0------------------------------------|
D|-------------------------------5-5-5-5-5-5-5-5-44-4-44-4-44-4-4-4-|

Chorus:2x
G|------------------------------------------------------------------------|
D|------------------------------------------------------------------------|
A|-22222222-444444-555555-------------------------------------------------|
D|------------------------55-5-55-5-55-5-55-00000000000-44-4-44-4-44-4-44-|

Post-Chorus:1x
G|--------------------------------|
D|------------3/7\--/3\7\---------|
A|-3--3--3--3-----0------00000000-|
D|--------------------------------|

Verse:2x
Pre-Chorus:1x 
Chorus:2x

Bridge:x1                                           Play 2x After 1st pt
G|--------------------------------------------------|----------3/7\--3/7\--|
D|------------3/7\--3/7\---------------3/7\--3/7\---|3--3--3--3----0-----0-|
A|-3--3--3--3-----0-----0---3--3--3--3-----0-----10-|----------------------|
D|--------------------------------------------------|----------------------|

Post-Bridge:1x
G|-----------------------------------------------------|
D|-----------------------------------------------------|
A|-3(ring)---0(ring)-----------------------------------|
D|--------------------5(ring)--44-4-44-4-44-4-44-4-4-4-|

Chorus:2x
Ending Chorus:2x
G|-------------------------------------------------------------------------|
D|------------------------55-5-55-5-55-5-55--------------------------------|
A|-22222222-444444-555555-------------------555555555555-------------------|
D|-------------------------------------------------------44-4-44-4-44-4-44-|

Ending:1x
G|----------------------------------------|
D|------------3/7\--/3\7\-----------------|
A|-3--3--3--3-----0------00000000---------|
D|--------------------------------2(ring)-|

-----------------------------------------------------------------------------

Perfect World 

Tuning: Drop D

Intro:1x                                                   
G|----------------------------------------|
D|----------------------------------------|
A|----------33---0------------33--5(ring)-|
D|-22---5------------22---5---------------|

Pre-Verse:1x                    
G|-----------------------------------------------------|
D|---------------------------------22222222------------|
A|---------22222222--------22222222---------3333-2-3-2-|
D|-55555555--------55555555----------------------------|

Verse:2x                    
G|-----------------------------------------------------------------------|
D|----------------------------------------------------22222222-----------|
A|---------2(ring)---------2(ring)----------33333333----------3333-2-3-2-|
D|-5(ring)---------5(ring)---------22222222------------------------------|

Chorus:1x
G|-----------------------------------------------------------------------|
D|-----------------------------------------------------------------------|
A|-------------------33333333-0000000------------------33333333-55555555-|
D|-22222222-55555555------------------22222222-55555555------------------|

Pre-Verse:1x
Verse:2x
Chorus:2x

Bridge:2x
G|-------------------------------------------------------------------------|
D|----------------------------------------------------00-00-0-33-0-3-5-3-0-|
A|-------------22-22-2-33-33-3---------22-22-2-----------------------------|
D|-0-22-22-0-2-----------------55-55-5---------22-22-2---------------------|

Pre-Chorus: Play Intro 1x
Chorus:2x

-----------------------------------------------------------------------------

Sympathy 

Tuning:Drop D

Intro:1x                                                                    
G|-----------------------------------------|
D|---------------------------------1-0-----|
A|-6666-3333-----666-33------11--------3-1-| 
D|----------5555-------55--3---0--1--------| 

Verse:2x                                                                    
G|--------------------------------------------------------| 
D|--------------------------------------------------------| 
A|-----------111111---------------3333333--6-------5------|
D|-555555--------------3333333---------------5-8-5--4-7-4-| 

Pre-Chorus:1                                                                
G|---------------------------------|                                      
D|-------------------------111111--|                                       
A|---------000000--111111----------|                                        
D|-555555--------------------------|

Chorus:1x Play 3x         |Play After 3x                                   
G|------------------------|-----------------|                              
D|------------------------|---------1-0-----|                             
A|-6666-3333-----666-33---|---11--------3-1-|                             
D|----------5555-------55-|-3----0-1--------|

Verse:2x
Pre-Chorus:1x
Chorus:2x

Bridge:2x
G|------------------------------------------------------------------|
D|------------------------------------------------------------------|
A|----------------------------0-1-2-3-33333333-5-66666666-55555555--|
D|-55555555-00000000-33333333---------------------------------------|

Cont.
Play After 1x | After 2x
G|------------|----------|
D|------------|----------|
A|------------|----------|
D|--33333333--|-55555555-|

Chorus:2x Play After 3x Thrice 

-----------------------------------------------------------------------------

Burn The Evidence 

Tuning: Drop D

Intro:1x
Play 1x
G|-------------------------------------------------------------------|
D|-------------------------------------------------------------------|
A|----------5(ring)---------5(ring)---------5(ring)--3(ring)---------|
D|--5(ring)---------5(ring)---------5(ring)-----------------5(ring)--|

Play 3x            Play After 2x
G|----------------|----------|
D|----------------|----------|
A|------------5-5-|----------|
D|--5(ring)-5-----|-2(ring)--|

Pre-Chorus:1x           Play 2x               Play After 2x Regularly
G|----------------------|----------------------------|------|
D|----------------------|----------------------------|------|
A|-55-5--77-7--4-0-4-00-|-55-5-------77-7--44-0-4-00-|444444|
D|----------------------|------00-0------------------|------|

Play After 2x in Intro Pre-Chorus only.
G|--------------------|
D|--------------------|
A|3(ring)----1(ring)--|
D|--------------------|

Verse:4x
G|--------------------------------------------|
D|--------------------------------------------|
A|---------0(ring)--------0(ring)-------------|
D|-0(ring)--------3(ring)---------3-2-0(ring)-|

Play After 4x
G|-------------------|----------|
D|-------------------|----------|
A|-1-0-----------5-5-|----------|
D|-----5(ring)-5-----|-2(ring)--|

Pre Chorus:1x

Chorus:2x
Play 3x                 Play After 3x
G|----------------------|------------|
D|----------------------|------------|
A|-------------------0--|-3333-1111--|
D|-5-5-555--0--2--3-----|------------|

Bridge:2x
G|-------------------------------------------------------------------------|
D|-------------------------------------------------------------------------|
A|-55-5-3-555-5-555555-33-3-0-333-3-3333333-111111111111111100000000000000-|
D|-------------------------------------------------------------------------|

Play After 2x
G|--------------------------------------------------------------|
D|--------------------------------------------------------------|
A|-55555555555-77777777-33333333-111111111111111100000000000000-|
D|--------------------------------------------------------------|

Pre-Chorus:1x
Chorus:4x

Ending:1x
G|--------------------------|
D|--------------------------|
A|-3(ring)--1(ring)---------|
D|------------------0(ring)-|



Thats all have Fun playing
comments
print report bad tab
I want to post or [tab]
guest
You may want to rate the tab now too:
select rating
Please do not post tabs as comments. Select "correction" instead!